PrimaNota.ru - самый крупный в мире бесплатный архив песенных текстов, аккордов, табулатур и нот


Symposium - Puddles - таба, бас-таба, видео

Регистрация Запомнить меня
Войти через:  Facebook Google Twitter Vk Yandex Mail.ru

Symposium - Puddles - таба, бас-таба, видео

Печатать
Просмотров: 128
Title: Puddles
Artist: Symposium
Album: One day at a time EP
Tabber: Philip Tweedie
Standard tuning

Listen to the song for proper rhythm and timing
________________________________________________________________________

Intro
Gtr 1
e|-8--6------------------------|-8--6------------------------|
B|-------8-7-8-7---------------|-------8-7-8-7---------------|
G|---------------8--7----------|---------------8--7--8--7----|
D|---------------------8-/10---|-----------------------------|
A|-----------------------------|-----------------------------|
E|-----------------------------|-----------------------------|
                                                             |
Gtr 2                                                        |
e|-----------------------------|-----------------------------|
B|-----------------------------|-----------------------------|
G|-5--5--x-5-x-5-3--3--------3-|/5--5--x-5-x-5---------------|
D|-5--5--x-5-x-5-3--3--0-1-0-3-|/5--5--x-5-x-5-3--3-3--5-5-5-|
A|-3--3--x-3-x-3-1--1--------1-|/3--3--x-3-x-3-3--3-3--5-5-5-|
E|-----------------------------|---------------1--1-1--3-3-3-|

Gtr 1
e|-8--6------------------------|-8--6------------------------|
B|-------8-7-8-7---------------|-------8-7-8-7---------------|
G|---------------8--7----------|---------------8b------------|
D|---------------------8-/10---|-----------------------------|
A|-----------------------------|-----------------------------|
E|-----------------------------|-----------------------------|
                                                             |
Gtr 2                                                        |
e|-----------------------------|-----------------------------|
B|-----------------------------|-----------------------------|
G|-5--5--x-5-x-5-3--3--------3-|/5--5--x-5-x-5---------------|
D|-5--5--x-5-x-5-3--3--0-1-0-3-|/5--5--x-5-x-5-3-------------|
A|-3--3--x-3-x-3-1--1--------1-|/3--3--x-3-x-3-3-------------|
E|-----------------------------|---------------1-------------|
________________________________________________________________________

Verse 1 (ska style so add in some muted notes)
e|-3--3--3--3--3--3--3--3------|-3--3--3--3--3---------------|
B|-4--4--4--4--3--3--3--3------|-4--4--4--4--3---------------|
G|-5--5--5--5--4--4--4--4------|-5--5--5--5--4----4h5-4h5----| x2
D|-----------------------------|-----------------------------|
A|-----------------------------|-----------------------------|
E|-----------------------------|-----------------------------|

Not all of my questions are answered but,Thanks for your help.
Not all my questions are answered but, Thanks for your help.
________________________________________________________________________

Pre chorus 1
Gtr 1
e|-1--1-1-1-1-1-1-3--3-3-3-3-3-3-|-1--1-1-1-1-1-1-3------------|
B|-1--1-1-1-1-1-1-3--3-3-3-3-3-3-|-1--1-1-1-1-1-1-3------------|
G|-2--2-2-2-2-2-2-4--4-4-4-4-4-4-|-2--2-2-2-2-2-2-4------------|
D|-------------------------------|-----------------------------|
A|-------------------------------|-----------------------------|
E|-------------------------------|-----------------------------|
                                                               |
Gtr 2                                                          |
e|-------------------------------|-----------------------------|
B|-------------------------------|-----------------------------|
G|-------------------------------|-----------------------------|
D|-3--3-3-3-3-3-3-5--5-5-5-5-5-5-|-3--3-3-3-3-3-3-5------------|
A|-3--3-3-3-3-3-3-5--5-5-5-5-5-5-|-3--3-3-3-3-3-3-5------------|
E|-1--1-1-1-1-1-1-3--3-3-3-3-3-3-|-1--1-1-1-1-1-1-3------------|

Gtr 1
e|-1--1-1-1-1-1-1-3--3-3-3-3-3-3-|-5-5-5-5-5-5-5-5/---------------|
B|-1--1-1-1-1-1-1-3--3-3-3-3-3-3-|-6-6-6-6-6-6-6-6/---------------|
G|-2--2-2-2-2-2-2-4--4-4-4-4-4-4-|-5-5-5-5-5-5-5-5/---------------|
D|-------------------------------|--------------------------------|
A|-------------------------------|--------------------------------|
E|-------------------------------|--------------------------------|
                                                                  |
Gtr 2                                                             |
e|-------------------------------|--------------------------------|
B|-------------------------------|--------------------------------|
G|-------------------------------|----------------4h5-4h5-4h5-4h5-|
D|-3--3-3-3-3-3-3-5--5-5-5-5-5-5-|-3--3-3-3-3-3-3-----------------|
A|-3--3-3-3-3-3-3-5--5-5-5-5-5-5-|-3--3-3-3-3-3-3-----------------|
E|-1--1-1-1-1-1-1-3--3-3-3-3-3-3-|-1--1-1-1-1-1-1-----------------|


What's my line, what's the story? Don't me laugh!
Take my time, you're joking surely? Don't make me laugh, oh yeah!
________________________________________________________________________

Chorus 1
e|-----------------------------|-----------------------------|
B|-----------------------------|-----------------------------|
G|-5--5--x-5-x-5-3--3----------|-5--5--x-5-x-5---------------|
D|-5--5--x-5-x-5-3--3--0-1-0-1-|-5--5--x-5-x-5-3--3-3--5-5-5-|
A|-3--3--x-3-x-3-1--1----------|-3--3--x-3-x-3-3--3-3--5-5-5-|
E|-----------------------------|---------------1--1-1--3-3-3-|

e|-----------------------------|-----------------------------|
B|-----------------------------|-----------------------------|
G|-5--5--x-5-x-5-3--3----------|-5--5--x-5-x-5---------------|
D|-5--5--x-5-x-5-3--3--0-1-0-1-|-5--5--x-5-x-5-3-3-3---------|
A|-3--3--x-3-x-3-1--1----------|-3--3--x-3-x-3-3-3-3-2-3-2-3-|
E|-----------------------------|---------------1-1-1---------|

Gtr 1
e|-8--6------------------------|-8--6------------------------|
B|-------8-7-8-7---------------|-------8-7-8-7---------------|
G|---------------8--7----------|---------------8--7--8--7----|
D|---------------------8-/10---|-----------------------------|
A|-----------------------------|-----------------------------|
E|-----------------------------|-----------------------------|
                                                             |
Gtr 2                                                        |
e|-----------------------------|-----------------------------|
B|-----------------------------|-----------------------------|
G|-5--5--x-5-x-5-3--3----------|-5--5--x-5-x-5---------------|
D|-5--5--x-5-x-5-3--3--0-1-0-1-|-5--5--x-5-x-5-3--3-3--5-5-5-|
A|-3--3--x-3-x-3-1--1----------|-3--3--x-3-x-3-3--3-3--5-5-5-|
E|-----------------------------|---------------1--1-1--3-3-3-|

Gtr 1
e|-8--6------------------------|-8--6------------------------|
B|-------8-7-8-7---------------|-------8-7-8-7---------------|
G|---------------8--7----------|---------------8b------------|
D|---------------------8-/10---|-----------------------------|
A|-----------------------------|-----------------------------|
E|-----------------------------|-----------------------------|
                                                             |
Gtr 2                                                        |
e|-----------------------------|-----------------------------|
B|-----------------------------|-----------------------------|
G|-5--5--x-5-x-5-3--3--------3-|/5--5--x-5-x-5---------------|
D|-5--5--x-5-x-5-3--3--0-1-0-3-|/5--5--x-5-x-5-3------0-1----|
A|-3--3--x-3-x-3-1--1--------1-|/3--3--x-3-x-3-3--2-3--------|
E|-----------------------------|---------------1-------------|

Whatever I say or do, It makes no sense to you,
The way I speak's no trick, It's true you make me sick.
Whatever I say or do, It makes no sense to you,
The way I speak's no trick, It's true you make me sick.
You make me sick, Is it any wonder?
________________________________________________________________________

Verse 2 (ska style so add in some muted notes)
e|-3--3--3--3--3--3--3--3------|-3--3--3--3--3---------------|
B|-4--4--4--4--3--3--3--3------|-4--4--4--4--3---------------|
G|-5--5--5--5--4--4--4--4------|-5--5--5--5--4----4h5-4h5----| x2
D|-----------------------------|-----------------------------|
A|-----------------------------|-----------------------------|
E|-----------------------------|-----------------------------|

I like it when we smile a lot, I speak things, which you forget.
I like it when we smile a lot, I speak things, which you forget.
________________________________________________________________________

Pre chorus 2
Gtr 1
e|-1--1-1-1-1-1-1-3--3-3-3-3-3-3-|-5-5-5-5-5-5-5-5/------------|
B|-1--1-1-1-1-1-1-3--3-3-3-3-3-3-|-6-6-6-6-6-6-6-6/------------|
G|-2--2-2-2-2-2-2-4--4-4-4-4-4-4-|-5-5-5-5-5-5-5-5/------------|
D|-------------------------------|-----------------------------|
A|-------------------------------|-----------------------------|
E|-------------------------------|-----------------------------|
                                                               |
Gtr 2                                                          |
e|-------------------------------|-----------------------------|
B|-------------------------------|-----------------------------|
G|-------------------------------|-----------------------------|
D|-3--3-3-3-3-3-3-5--5-5-5-5-5-5-|-3--3-3-3-3-3-3-5------------|
A|-3--3-3-3-3-3-3-5--5-5-5-5-5-5-|-3--3-3-3-3-3-3-5------------|
E|-1--1-1-1-1-1-1-3--3-3-3-3-3-3-|-1--1-1-1-1-1-1-3------------|

Gtr 1
e|-1--1-1-1-1-1-1-3--3-3-3-3-3-3-|-5-5-5-5-5-5-5-5----------------|
B|-1--1-1-1-1-1-1-3--3-3-3-3-3-3-|-6-6-6-6-6-6-6-6----------------|
G|-2--2-2-2-2-2-2-4--4-4-4-4-4-4-|-5-5-5-5-5-5-5-5-4h5-4h5-4h5-4h5|
D|-------------------------------|--------------------------------|
A|-------------------------------|--------------------------------|
E|-------------------------------|--------------------------------|
                                                                  |
Gtr 2                                                             |
e|-------------------------------|--------------------------------|
B|-------------------------------|--------------------------------|
G|-------------------------------|----------------4h5-4h5-4h5-4h5-|
D|-3--3-3-3-3-3-3-5--5-5-5-5-5-5-|-3--3-3-3-3-3-3-----------------|
A|-3--3-3-3-3-3-3-5--5-5-5-5-5-5-|-3--3-3-3-3-3-3-----------------|
E|-1--1-1-1-1-1-1-3--3-3-3-3-3-3-|-1--1-1-1-1-1-1-----------------|

What's my line, what's the story? Don't me laugh!
Take my time, you're joking surely? Don't make me laugh, oh yeah!
________________________________________________________________________

Chorus 2
e|-----------------------------|-----------------------------|
B|-----------------------------|-----------------------------|
G|-5--5--x-5-x-5-3--3----------|-5--5--x-5-x-5---------------|
D|-5--5--x-5-x-5-3--3--0-1-0-1-|-5--5--x-5-x-5-3--3-3--5-5-5-|
A|-3--3--x-3-x-3-1--1----------|-3--3--x-3-x-3-3--3-3--5-5-5-|
E|-----------------------------|---------------1--1-1--3-3-3-|

e|-----------------------------|-----------------------------|
B|-----------------------------|-----------------------------|
G|-5--5--x-5-x-5-3--3----------|-5--5--x-5-x-5---------------|
D|-5--5--x-5-x-5-3--3--0-1-0-1-|-5--5--x-5-x-5-3-3-3---------|
A|-3--3--x-3-x-3-1--1----------|-3--3--x-3-x-3-3-3-3-2-3-2-3-|
E|-----------------------------|---------------1-1-1---------|

Gtr 1
e|-8--6------------------------|-8--6------------------------|
B|-------8-7-8-7---------------|-------8-7-8-7---------------|
G|---------------8--7----------|---------------8--7--8--7----|
D|---------------------8-/10---|-----------------------------|
A|-----------------------------|-----------------------------|
E|-----------------------------|-----------------------------|
                                                             |
Gtr 2                                                        |
e|-----------------------------|-----------------------------|
B|-----------------------------|-----------------------------|
G|-5--5--x-5-x-5-3--3----------|-5--5--x-5-x-5---------------|
D|-5--5--x-5-x-5-3--3--0-1-0-1-|-5--5--x-5-x-5-3--3-3--5-5-5-|
A|-3--3--x-3-x-3-1--1----------|-3--3--x-3-x-3-3--3-3--5-5-5-|
E|-----------------------------|---------------1--1-1--3-3-3-|

Gtr 1
e|-8--6------------------------|-8--6------------------------|
B|-------8-7-8-7---------------|-------8-7-8-7---------------|
G|---------------8--7----------|---------------8b------------|
D|---------------------8-/10---|-----------------------------|
A|-----------------------------|-----------------------------|
E|-----------------------------|-----------------------------|
                                                             |
Gtr 2                                                        |
e|-----------------------------|-----------------------------|
B|-----------------------------|-----------------------------|
G|-5--5--x-5-x-5-3--3--------3-|/5--5--x-5-x-5---------------|
D|-5--5--x-5-x-5-3--3--0-1-0-3-|/5--5--x-5-x-5-3------0-1----|
A|-3--3--x-3-x-3-1--1--------1-|/3--3--x-3-x-3-3--2-3--------|
E|-----------------------------|---------------1-------------|

Whatever I say or do, It makes no sense to you,
The way I speak's no trick, It's true you make me sick.
Whatever I say or do, It makes no sense to you,
The way I speak's no trick, It's true you make me sick.
You make me sick, Is it any wonder?
________________________________________________________________________

Bridge
PM---------------------------------|-----------------grad release    |
e|---------------------------------|-------------------------------1-|
B|---------------------------------|-----------------------------1-1-|
G|-5-5-5-5-5-5-5-0-----------------|-5-5-5-5-5-5-5-0---------4-4-4-4-|
D|-5-5-5-5-5-5-5-0-5-5-5-5-5-5-5-0-|-5-5-5-5-5-5-5-0-3-3-3-3-3-3-3-3-|
A|-3-3-3-3-3-3-3-0-5-5-5-5-5-5-5-0-|-3-3-3-3-3-3-3-0-3-3-3-3-3-3-3-3-|
E|-----------------3-3-3-3-3-3-3-0-|-----------------1-1-1-1-1-1-1-1-|
 
(ska style so add in some muted notes)
Gtr 1
e|-3--3--3--3--3--3--3--3------|-3--3--3--3---1-1-1--1-1-1---|
B|-4--4--4--4--3--3--3--3------|-4--4--4--4---1-1-1--1-1-1---|
G|-5--5--5--5--4--4--4--4------|-5--5--5--5---2-2-2--2-2-2---|
D|-----------------------------|-----------------------------|
A|-----------------------------|-----------------------------|
E|-----------------------------|-----------------------------|
                                                             |
Gtr 2                                                        |
e|-8-let ring and feedback-----|--Cont feedback--------------|
B|-----------------------------|-----------------------------|
G|-----------------------------|-----------------------------|
D|-----------------------------|-----------------------------|
A|-----------------------------|-----------------------------|
E|-----------------------------|-----------------------------|


Gtr 1
e|-3--3--3--3--3--3--3--3------|-3--3--3--3--3-3-------------|
B|-4--4--4--4--3--3--3--3------|-4--4--4--4--4-4-------------|
G|-5--5--5--5--4--4--4--4------|-5--5--5--5--5-5-------------|
D|-----------------------------|-----------------------------|
A|-----------------------------|-----------------------------|
E|-----------------------------|-----------------------------|
                                                             |
Gtr 2   trill notes                                          |
e|-(8)-------------------------|-----------------------------|
B|--8-8-8------------hold>>>>--|>>>>>>>>>>>>>>>>-------------|
G|-----------------------------|-----------------------------|
D|-----------------------------|-----------------------------|
A|-----------------------------|-----------------------------|
E|-----------------------------|-----------------------------|
________________________________________________________________________

Chorus 3
Gtr 1
e|-8--6------------------------|-8--6------------------------|
B|-------8-7-8-7---------------|-------8-7-8-7---------------|
G|---------------8--7----------|---------------8--7--8--7----|
D|---------------------8-/10---|-----------------------------|
A|-----------------------------|-----------------------------|
E|-----------------------------|-----------------------------|
                                                             |
Gtr 2                                                        |
e|-----------------------------|-----------------------------|
B|-----------------------------|-----------------------------|
G|-5--5--x-5-x-5-3--3----------|-5--5--x-5-x-5---------------|
D|-5--5--x-5-x-5-3--3--0-1-0-1-|-5--5--x-5-x-5-3--3-3--5-5-5-|
A|-3--3--x-3-x-3-1--1----------|-3--3--x-3-x-3-3--3-3--5-5-5-|
E|-----------------------------|---------------1--1-1--3-3-3-|

Gtr 1
e|-8--6------------------------|-8--6------------------------|
B|-------8-7-8-7---------------|-------8-7-8-7---------------|
G|---------------8--7----------|---------------8--7--8--7----|
D|---------------------8-/10---|-----------------------------|
A|-----------------------------|-----------------------------|
E|-----------------------------|-----------------------------|
                                                             |
Gtr 2                                                        |
e|-----------------------------|-----------------------------|
B|-----------------------------|-----------------------------|
G|-5--5--x-5-x-5-3--3--------3-|/5--5--x-5-x-5---------------|
D|-5--5--x-5-x-5-3--3--0-1-0-3-|/5--5--x-5-x-5-3------0-1----|
A|-3--3--x-3-x-3-1--1--------1-|/3--3--x-3-x-3-3--2-3--------|
E|-----------------------------|---------------1-------------|

Gtr 1
e|-8--6------------------------|-8--6------------------------|
B|-------8-7-8-7---------------|-------8-7-8-7---------------|
G|---------------8--7----------|---------------8--7--8--7----|
D|---------------------8-/10---|-----------------------------|
A|-----------------------------|-----------------------------|
E|-----------------------------|-----------------------------|
                                                             |
Gtr 2                                                        |
e|-----------------------------|-----------------------------|
B|-----------------------------|-----------------------------|
G|-5--5--x-5-x-5-3--3----------|-5--5--x-5-x-5---------------|
D|-5--5--x-5-x-5-3--3--0-1-0-1-|-5--5--x-5-x-5-3--3-3--5-5-5-|
A|-3--3--x-3-x-3-1--1----------|-3--3--x-3-x-3-3--3-3--5-5-5-|
E|-----------------------------|---------------1--1-1--3-3-3-|

Gtr 1
e|-8--6------------------------|-8--6------------------------|
B|-------8-7-8-7---------------|-------8-7-8-7---------------|
G|---------------8--7----------|---------------8b------------|
D|---------------------8-/10---|-----------------------------|
A|-----------------------------|-----------------------------|
E|-----------------------------|-----------------------------|
                                                             |
Gtr 2                                                        |
e|-----------------------------|-----------------------------|
B|-----------------------------|-----------------------------|
G|-5--5--x-5-x-5-3--3--------3-|/5--5--x-5-x-5---------------|
D|-5--5--x-5-x-5-3--3--0-1-0-3-|/5--5--x-5-x-5-3------0-1----|
A|-3--3--x-3-x-3-1--1--------1-|/3--3--x-3-x-3-3--2-3--------|
E|-----------------------------|---------------1-------------|

Whatever I say or do, It makes no sense to you,
The way I speak's no trick, It's true you make me sick.
Whatever I say or do, It makes no sense to you,
The way I speak's no trick, It's true you make me sick.
You make me sick, Is it any wonder?
Is it any wonder?
________________________________________________________________________

Outro Solo (not 100% but based around this progression)
Gtr 1
e|-----------------------------|-----------------------------|
B|-----------------------------|-----------------------------|
G|-8b-8-7--5-8-7---------------|----7h8-7--7h8-7--8-7--5-8-7-|
D|---------------8-8/10--10-8--|-10--------------------------|
A|-----------------------------|-----------------------------|
E|-----------------------------|-----------------------------|
                                                             |
Gtr 2                                                        |
e|-----------------------------|-----------------------------|
B|-----------------------------|-----------------------------|
G|-5--5--x-5-x-5-3--3----------|-5--5--x-5-x-5---------------|
D|-5--5--x-5-x-5-3--3--0-1-0-1-|-5--5--x-5-x-5-3--3-3--5-5-5-|
A|-3--3--x-3-x-3-1--1----------|-3--3--x-3-x-3-3--3-3--5-5-5-|
E|-----------------------------|---------------1--1-1--3-3-3-|

Gtr 1
e|-----------------------------|-----------------------------|
B|-----------------------------|-----------------------------|
G|-----------------7h8-7h8-7h8-|-7h8-----------------5-------|
D|8-8/10--10-8--10-------------|---------------------5-------|
A|-----------------------------|-----5h6-5h6-5h6-5h6-3-------|
E|-----------------------------|-----------------------------|
                                                             |
Gtr 2                                                        |
e|-----------------------------|-----------------------------|
B|-----------------------------|-----------------------------|
G|-5--5--x-5-x-5-3--3----------|---------------------5-------|
D|-5--5--x-5-x-5-3--3--0-1-0-1-|-0-1-0-1-0-1-0-1-0-1-5-------|
A|-3--3--x-3-x-3-1--1----------|---------------------3-------|
E|-----------------------------|-----------------------------|
________________________________________________________________________


Enjoy
Please rate and leave constructive comments/feedback

Добавлено: 09.07.2015
Другие материалы по этой песне:
  • Аккорды и текст

Страница создана 25.06.2015
http://primanota.ru/symposium/puddles-chords.htm
Привет, Гость.
Предлагаем пройти революционный курс по гитаре.
Подарок от PrimaNota.Ru, забирай!