PrimaNota.ru - самый крупный в мире бесплатный архив песенных текстов, аккордов, табулатур и нот


Symposium - Jim - таба, видео

Регистрация Запомнить меня
Войти через:  Facebook Google Twitter Vk Yandex Mail.ru

Symposium - Jim - таба, видео

Печатать
Просмотров: 57
Symposium 
Jim
The Answer To Why I Hate You single 
Standard tuning

Tabbed by Philip Tweedie

Another hidden gem :) Listen to the song for timings
To make tabbing easier see below
*1 F5 can also be played on A string at 8th Fret
*2 can also be played on B string 10th Fret
____________________________________________________________________________________________

Intro

e|-----------------|-----------------|-----------------|-----------------|
B|-----------------|-----------------|-----------------|-----------------|
G|-9-9-9-----------|-7-7-7-----------|-9-9-9-----------|-7---9---7---9---|
D|-9-9-9-----------|-7-7-7-----------|-9-9-9-----------|-7---9---7---9---|
A|-7-7-7-----------|-5-5-5-----------|-7-7-7-----------|-5---7---5---7---|
E|-----------------|-----------------|-----------------|-----------------|

                    *1
e|-----------------|-----------------|-----------------|-----------------|
B|-----------------|-6-6-6-6-6-6-6-6-|-----------------|-----------------|
G|-----------------|-5-5-5-5-5-5-5-5-|-----------------|-5-5-5-5-7-7-7-7-| x2
D|-7---7-7-7-7-7-7-|-3-3-3-3-3-3-3-3-|-7---7-7-7-7-7-7-|-5-5-5-5-7-7-7-7-|
A|-7---7-7-7-7-7-7-|-----------------|-7---7-7-7-7-7-7-|-3-3-3-3-5-5-5-5-|
E|-5---5-5-5-5-5-5-|-----------------|-5---5-5-5-5-5-5-|-----------------|
____________________________________________________________________________________________

Verse 1
"I've been obsessing over you for 2 years now,"
e|-----------------|-----------------|-----------------|-----------------|
B|-----------------|-----------------|-----------------|-----------------|
G|-2---------------|-(2)-------------|-(2)-------------|-(2)-------------|
D|-2---------------|-(2)-------------|-(2)-------------|-(2)-------------|
A|-0---------------|-(0)-------------|-(0)-------------|-(0)-------------|
E|-----------------|-----------------|-----------------|-----------------|

"I'm an obsessive type of guy"
e|-----------------|-----------------|-----------------|-----------------|
B|-----------------|-----------------|-----------------|-----------------|
G|-(2)-------------|-(2)-------------|-(2)-------------|-----------------|
D|-(2)-------------|-(2)-------------|-(2)-------------|-5-5-------------|
A|-(0)-------------|-(0)-------------|-(0)-------------|-5-5-------------|
E|-----------------|-----------------|-----------------|-----------------|

"Wrote your name 6000 times on my wall,"
   *2
e|-5-5-5-5-5-5-5-5-|-5-5-5-5-5-5-5-5-|-5-5-5-5-5-5-5-5-|-----------------|
B|-----------------|-----------------|-----------------|-8-8-8-8-7-7-7-7-|
G|-----------------|-----------------|-----------------|-----------------|
D|-----------------|-----------------|-----------------|-----------------|
A|-----------------|-----------------|-----------------|-----------------|
E|-----------------|-----------------|-----------------|-----------------|

"Still haven't got a reply."
e|-5-5-5-5-5-5-5-5-|-5-5-5-5-5-5-5-5-|-5-5-5-5-5-5-5-5-|-----------------|
B|-----------------|-----------------|-----------------|-8-8-8-8-7-7-7-7-|
G|-----------------|-----------------|-----------------|-----------------|
D|-----------------|-----------------|-----------------|-----------------|
A|-----------------|-----------------|-----------------|-----------------|
E|-----------------|-----------------|-----------------|-----------------|
____________________________________________________________________________________________

Pre-chorus 1
"I don't mean to scare you,            But I got nothing better to do,"
PM   ____   ____       ____   ____       ____   ____       ____   ____                            
e|-----------------|-----------------|-----------------|-----------------|
B|-----------------|-----------------|-----------------|-----------------|
G|-----------------|-----------------|-----------------|-----------------|
D|-5--5-5-8--8-8---|-7--7-7-4--4-4---|-5--5-5-8--8-8---|-7--7-7-4--4-4---|
A|-5--5-5-8--8-8---|-7--7-7-4--4-4---|-5--5-5-8--8-8---|-7--7-7-4--4-4---|
E|-3--3-3-6--6-6---|-5--5-5-2--2-2---|-3--3-3-6--6-6---|-5--5-5-2--2-2---|

"I don't want you to love me,          I just like, I just like,"
PM   ____   ____       ____   ____   
e|-----------------|-----------------|-----------------|-----------------|
B|-----------------|-----------------|-----------------|-----------------|
G|-----------------|-----------------|-----------------|-----------------|
D|-5--5-5-8--8-8---|-7--7-7-4--4-4---|-5-5-x-x-5-5-x-x-|-5-5-x-x-5-5-x-x-|
A|-5--5-5-8--8-8---|-7--7-7-4--4-4---|-5-5-x-x-5-5-x-x-|-5-5-x-x-5-5-x-x-|
E|-3--3-3-6--6-6---|-5--5-5-2--2-2---|-3-3-x-x-3-3-x-x-|-3-3-x-x-3-3-x-x-|

"Obsessing over"
e|-----------------|-----------------|
B|-----------------|-----------------|
G|-----------------|-----------------|
D|-5---5---5---5---|-5-5-5-5-5-5-5-5-|
A|-5---5---5---5---|-5-5-5-5-5-5-5-5-|
E|-3---3---3---3---|-3-3-3-3-3-3-3-3-|
____________________________________________________________________________________________

Chorus 1
"You"
Guitar 1
e|-4h5-5-5--5-5-5--|-4h5-5-5--5-5-5--|-4h5-5-5--5-5-5--|-----------------|
B|-----------------|-----------------|-----------------|-8-8-8---7-7-7---|
G|-----------------|-----------------|-----------------|-----------------|
D|-----------------|-----------------|-----------------|-----------------|
A|-----------------|-----------------|-----------------|-----------------|
E|-----------------|-----------------|-----------------|-----------------|
                                                                         |
Guitar 2                                                                 |
e|-----------------|-----------------|-----------------|-----------------|
B|-----------------|-6-6-6-6-6-6-6-6-|-----------------|-----------------|
G|-----------------|-5-5-5-5-5-5-5-5-|-----------------|-5-5-5-5-7-7-7-7-|
D|-7---7-7-7-7-7-7-|-3-3-3-3-3-3-3-3-|-7---7-7-7-7-7-7-|-5-5-5-5-7-7-7-7-|
A|-7---7-7-7-7-7-7-|-----------------|-7---7-7-7-7-7-7-|-3-3-3-3-5-5-5-5-|
E|-5---5-5-5-5-5-5-|-----------------|-5---5-5-5-5-5-5-|-----------------|

"You"
Guitar 1
e|-4h5-5-5--5-5-5--|-4h5-5-5--5-5-5--|-4h5-5-5--5-5-5--|-8br-br-10br--br-|
B|-----------------|-----------------|-----------------|-----------------|
G|-----------------|-----------------|-----------------|-----------------|
D|-----------------|-----------------|-----------------|-----------------|
A|-----------------|-----------------|-----------------|-----------------|
E|-----------------|-----------------|-----------------|-----------------|
                                                                         |
Guitar 2                                               PM___    ____     |
e|-----------------|-----------------|-----------------|-----------------|
B|-----------------|-6-6-6-6-6-6-6-6-|-----------------|-----------------|
G|-----------------|-5-5-5-5-5-5-5-5-|-----------------|-5-5-5---7-7-7---|
D|-7---7-7-7-7-7-7-|-3-3-3-3-3-3-3-3-|-7---7-7-7-7-7-7-|-5-5-5---7-7-7---|
A|-7---7-7-7-7-7-7-|-----------------|-7---7-7-7-7-7-7-|-3-3-3---5-5-5---|
E|-5---5-5-5-5-5-5-|-----------------|-5---5-5-5-5-5-5-|-----------------|

"You"
Guitar 1
e|-4h5-5-5--5-5-5--|-4h5-5-5--5-5-5--|-4h5-5-5--5-5-5--|-----------------|
B|-----------------|-----------------|-----------------|-8-8-8---7-7-7---|
G|-----------------|-----------------|-----------------|-----------------|
D|-----------------|-----------------|-----------------|-----------------|
A|-----------------|-----------------|-----------------|-----------------|
E|-----------------|-----------------|-----------------|-----------------|
                                                                         |
Guitar 2                                                                 |
e|-----------------|-----------------|-----------------|-----------------|
B|-----------------|-6-6-6-6-6-6-6-6-|-----------------|-----------------|
G|-----------------|-5-5-5-5-5-5-5-5-|-----------------|-5-5-5-5-7-7-7-7-|
D|-7---7-7-7-7-7-7-|-3-3-3-3-3-3-3-3-|-7---7-7-7-7-7-7-|-5-5-5-5-7-7-7-7-|
A|-7---7-7-7-7-7-7-|-----------------|-7---7-7-7-7-7-7-|-3-3-3-3-5-5-5-5-|
E|-5---5-5-5-5-5-5-|-----------------|-5---5-5-5-5-5-5-|-----------------|

"You"
Guitar 1
e|-4h5-5-5--5-5-5--|-4h5-5-5--5-5-5--|-4h5-5-5--5-5-5--|-8br-br-10br--br-|
B|-----------------|-----------------|-----------------|-----------------|
G|-----------------|-----------------|-----------------|-----------------|
D|-----------------|-----------------|-----------------|-----------------|
A|-----------------|-----------------|-----------------|-----------------|
E|-----------------|-----------------|-----------------|-----------------|
                                                                         |
Guitar 2                                               PM___    ____     |
e|-----------------|-----------------|-----------------|-----------------|
B|-----------------|-6-6-6-6-6-6-6-6-|-----------------|-----------------|
G|-----------------|-5-5-5-5-5-5-5-5-|-----------------|-5-5-5---7-7-7---|
D|-7---7-7-7-7-7-7-|-3-3-3-3-3-3-3-3-|-7---7-7-7-7-7-7-|-5-5-5---7-7-7---|
A|-7---7-7-7-7-7-7-|-----------------|-7---7-7-7-7-7-7-|-3-3-3---5-5-5---|
E|-5---5-5-5-5-5-5-|-----------------|-5---5-5-5-5-5-5-|-----------------|


e|-----------------|-----------------|
B|-----6-----------|-----------------|
G|-----5---5-5-----|-5-5-5-7---------|
D|-7---3---5-5-----|-5-5-5-7----5----| x4
A|-7-------3-3-----|-3-3-3-5----5----|
E|-5---------------|------------3----|
____________________________________________________________________________________________

Verse 2
"When I see you I turn into a moron,"
e|-----------------|-----------------|-----------------|-----------------|
B|-----------------|-----------------|-----------------|-----------------|
G|-2---------------|-(2)-------------|-(2)-------------|-(2)-------------|
D|-2---------------|-(2)-------------|-(2)-------------|-(2)-------------|
A|-0---------------|-(0)-------------|-(0)-------------|-(0)-------------|
E|-----------------|-----------------|-----------------|-----------------|

"Talk more shit than usual,"
e|-----------------|-----------------|-----------------|-----------------|
B|-----------------|-----------------|-----------------|-----------------|
G|-(2)-------------|-(2)-------------|-(2)-------------|-(2)-------------|
D|-(2)-------------|-(2)-------------|-(2)-------------|-(2)-------------|
A|-(0)-------------|-(0)-------------|-(0)-------------|-(0)-------------|
E|-----------------|-----------------|-----------------|-----------------|

"What the hell! I like it that way,"
e|-5-5-5-5-5-5-5-5-|-5-5-5-5-5-5-5-5-|-5-5-5-5-5-5-5-5-|-----------------|
B|-----------------|-----------------|-----------------|-8-8-8-8-7-7-7-7-|
G|-----------------|-----------------|-----------------|-----------------|
D|-----------------|-----------------|-----------------|-----------------|
A|-----------------|-----------------|-----------------|-----------------|
E|-----------------|-----------------|-----------------|-----------------|

"Still not funny, whatta say, Guess you think I'm pretty sick huh!"
e|-5-5-5-5-5-5-5-5-|-5-5-5-5-5-5-5-5-|-5-5-5-5-5-5-5-5-|-----------------|
B|-----------------|-----------------|-----------------|-8-8-8-8-7-7-7-7-|
G|-----------------|-----------------|-----------------|-----------------|
D|-----------------|-----------------|-----------------|-----------------|
A|-----------------|-----------------|-----------------|-----------------|
E|-----------------|-----------------|-----------------|-----------------|
____________________________________________________________________________________________

Pre-Chorus 2
"I don't mean to scare you,            But I got nothing better to do,"
PM   ____   ____       ____   ____       ____   ____       ____   ____                            
e|-----------------|-----------------|-----------------|-----------------|
B|-----------------|-----------------|-----------------|-----------------|
G|-----------------|-----------------|-----------------|-----------------|
D|-5--5-5-8--8-8---|-7--7-7-4--4-4---|-5--5-5-8--8-8---|-7--7-7-4--4-4---|
A|-5--5-5-8--8-8---|-7--7-7-4--4-4---|-5--5-5-8--8-8---|-7--7-7-4--4-4---|
E|-3--3-3-6--6-6---|-5--5-5-2--2-2---|-3--3-3-6--6-6---|-5--5-5-2--2-2---|

"I don't want you to love me,          I just like, I just like,"
PM   ____   ____       ____   ____   
e|-----------------|-----------------|-----------------|-----------------|
B|-----------------|-----------------|-----------------|-----------------|
G|-----------------|-----------------|-----x-------x---|-----x-------x---|
D|-5--5-5-8--8-8---|-7--7-7-4--4-4---|-5-5-x---5-5-x---|-5-5-x---5-5-x---|
A|-5--5-5-8--8-8---|-7--7-7-4--4-4---|-5-5-----5-5-----|-5-5-----5-5-----|
E|-3--3-3-6--6-6---|-5--5-5-2--2-2---|-3-3-----3-3-----|-3-3-----3-3-----|

"Obsessing over"
e|-----------------|-----------------|
B|-----------------|-----------------|
G|-----------------|-----------------|
D|-5---5---5---5---|-5-5-5-5-5-5-5-5-|
A|-5---5---5---5---|-5-5-5-5-5-5-5-5-|
E|-3---3---3---3---|-3-3-3-3-3-3-3-3-|
____________________________________________________________________________________________

Outro Chorus
"You"
Guitar 1
e|-4h5-5-5--5-5-5--|-4h5-5-5--5-5-5--|-4h5-5-5--5-5-5--|-----------------|
B|-----------------|-----------------|-----------------|-8-8-8---7-7-7---|
G|-----------------|-----------------|-----------------|-----------------|
D|-----------------|-----------------|-----------------|-----------------|
A|-----------------|-----------------|-----------------|-----------------|
E|-----------------|-----------------|-----------------|-----------------|
                                                                         |
Guitar 2                                                                 |
e|-----------------|-----------------|-----------------|-----------------|
B|-----------------|-6-6-6-6-6-6-6-6-|-----------------|-----------------|
G|-----------------|-5-5-5-5-5-5-5-5-|-----------------|-5-5-5-5-7-7-7-7-|
D|-7---7-7-7-7-7-7-|-3-3-3-3-3-3-3-3-|-7---7-7-7-7-7-7-|-5-5-5-5-7-7-7-7-|
A|-7---7-7-7-7-7-7-|-----------------|-7---7-7-7-7-7-7-|-3-3-3-3-5-5-5-5-|
E|-5---5-5-5-5-5-5-|-----------------|-5---5-5-5-5-5-5-|-----------------|

"You"
Guitar 1
e|-4h5-5-5--5-5-5--|-4h5-5-5--5-5-5--|-4h5-5-5--5-5-5--|-8br-br-10br--br-|
B|-----------------|-----------------|-----------------|-----------------|
G|-----------------|-----------------|-----------------|-----------------|
D|-----------------|-----------------|-----------------|-----------------|
A|-----------------|-----------------|-----------------|-----------------|
E|-----------------|-----------------|-----------------|-----------------|
                                                                         |
Guitar 2                                               PM___    ____     |
e|-----------------|-----------------|-----------------|-----------------|
B|-----------------|-6-6-6-6-6-6-6-6-|-----------------|-----------------|
G|-----------------|-5-5-5-5-5-5-5-5-|-----------------|-5-5-5---7-7-7---|
D|-7---7-7-7-7-7-7-|-3-3-3-3-3-3-3-3-|-7---7-7-7-7-7-7-|-5-5-5---7-7-7---|
A|-7---7-7-7-7-7-7-|-----------------|-7---7-7-7-7-7-7-|-3-3-3---5-5-5---|
E|-5---5-5-5-5-5-5-|-----------------|-5---5-5-5-5-5-5-|-----------------|

"You"
Guitar 1
e|-4h5-5-5--5-5-5--|-4h5-5-5--5-5-5--|-4h5-5-5--5-5-5--|-----------------|
B|-----------------|-----------------|-----------------|-8-8-8---7-7-7---|
G|-----------------|-----------------|-----------------|-----------------|
D|-----------------|-----------------|-----------------|-----------------|
A|-----------------|-----------------|-----------------|-----------------|
E|-----------------|-----------------|-----------------|-----------------|
                                                                         |
Guitar 2                                                                 |
e|-----------------|-----------------|-----------------|-----------------|
B|-----------------|-6-6-6-6-6-6-6-6-|-----------------|-----------------|
G|-----------------|-5-5-5-5-5-5-5-5-|-----------------|-5-5-5-5-7-7-7-7-|
D|-7---7-7-7-7-7-7-|-3-3-3-3-3-3-3-3-|-7---7-7-7-7-7-7-|-5-5-5-5-7-7-7-7-|
A|-7---7-7-7-7-7-7-|-----------------|-7---7-7-7-7-7-7-|-3-3-3-3-5-5-5-5-|
E|-5---5-5-5-5-5-5-|-----------------|-5---5-5-5-5-5-5-|-----------------|

"You"
Guitar 1
e|-4h5-5-5--5-5-5--|-4h5-5-5--5-5-5--|-4h5-5-5--5-5-5--|-8br-br-10br--br-|
B|-----------------|-----------------|-----------------|-----------------|
G|-----------------|-----------------|-----------------|-----------------|
D|-----------------|-----------------|-----------------|-----------------|
A|-----------------|-----------------|-----------------|-----------------|
E|-----------------|-----------------|-----------------|-----------------|
                                                                         |
Guitar 2                                               PM___    ____     |
e|-----------------|-----------------|-----------------|-----------------|
B|-----------------|-6-6-6-6-6-6-6-6-|-----------------|-----------------|
G|-----------------|-5-5-5-5-5-5-5-5-|-----------------|-5-5-5---7-7-7---|
D|-7---7-7-7-7-7-7-|-3-3-3-3-3-3-3-3-|-7---7-7-7-7-7-7-|-5-5-5---7-7-7---|
A|-7---7-7-7-7-7-7-|-----------------|-7---7-7-7-7-7-7-|-3-3-3---5-5-5---|
E|-5---5-5-5-5-5-5-|-----------------|-5---5-5-5-5-5-5-|-----------------|

                            "Oh Jim"
e|-----------------|-----------------|-----------------|-----------------|
B|-----6-----------|-----------------|-----6-----------|-----------------|
G|-----5---5-5-----|-5-5-5-7---------|-----5---5-5-----|-5-5-5-7---------|
D|-7---3---5-5-----|-5-5-5-7----5----|-7---3---5-5-----|-5-5-5-7----5----|
A|-7-------3-3-----|-3-3-3-5----5----|-7-------3-3-----|-3-3-3-5----5----|
E|-5---------------|------------3----|-5---------------|------------3----|

e|-----------------|-----------------|-----------------|-----------------|
B|-----6-----------|-----------------|-----6-----------|-----------------|
G|-----5---5-5-----|-5-5-5-7---------|-----5---5-5-----|-5-5-5-7---------|
D|-7---3---5-5-----|-5-5-5-7----5----|-7---3---5-5-----|-5-5-5-7----5----|
A|-7-------3-3-----|-3-3-3-5----5----|-7-------3-3-----|-3-3-3-5----5----|
E|-5---------------|------------3----|-5---------------|------------3----|

Guitar 1
e|-4h5-5-5--5-5-5--|-4h5-5-5--5-5-5--|-4h5-5-5--5-5-5--|-----------------|
B|-----------------|-----------------|-----------------|-8-8-8---7-7-7---|
G|-----------------|-----------------|-----------------|-----------------|
D|-----------------|-----------------|-----------------|-----------------|
A|-----------------|-----------------|-----------------|-----------------|
E|-----------------|-----------------|-----------------|-----------------|
                                                                         |
Guitar 2                                                                 |
e|-----------------|-----------------|-----------------|-----------------|
B|-----------------|-6-6-6-6-6-6-6-6-|-----------------|-----------------|
G|-----------------|-5-5-5-5-5-5-5-5-|-----------------|-5---4-----------|
D|-7---7-7-7-7-7-7-|-3-3-3-3-3-3-3-3-|-7---7-7-7-7-7-7-|-5---4---5---4---|
A|-7---7-7-7-7-7-7-|-----------------|-7---7-7-7-7-7-7-|-3---2---5---4---|
E|-5---5-5-5-5-5-5-|-----------------|-5---5-5-5-5-5-5-|---------3---2---|

                                                                      "Oh"
Guitar 1
e|-4h5-5-5--5-5-5--|-4h5-5-5--5-5-5--|-4h5-5-5--5-5-5--|-----------------|
B|-----------------|-----------------|-----------------|-----------------|
G|-----------------|-----------------|-----------------|-5---4-----------|
D|-----------------|-----------------|-----------------|-5---4---5---4---|
A|-----------------|-----------------|-----------------|-3---2---5---4---|
E|-----------------|-----------------|-----------------|---------3---2---|
                                                                         |
Guitar 2                                                                 |
e|-----------------|-----------------|-----------------|-----------------|
B|-----------------|-6-6-6-6-6-6-6-6-|-----------------|-----------------|
G|-----------------|-5-5-5-5-5-5-5-5-|-----------------|-5---4-----------|
D|-7---7-7-7-7-7-7-|-3-3-3-3-3-3-3-3-|-7---7-7-7-7-7-7-|-5---4---5---4---|
A|-7---7-7-7-7-7-7-|-----------------|-7---7-7-7-7-7-7-|-3---2---5---4---|
E|-5---5-5-5-5-5-5-|-----------------|-5---5-5-5-5-5-5-|---------3---2---|

"Jim"
e|-----------------|
B|-----------------|
G|-----------------|
D|-7---------------|
A|-7---------------|
E|-5---------------|
____________________________________________________________________________________________


Enjoy
Please rate and leave constructive comments/feedback
paddyonthetoadstool@hotmail.com August 2015
Добавлено: 21.06.2016
Другие материалы по этой песне:
  • Аккорды и текст

Страница создана 21.06.2016
http://primanota.ru/symposium/jim-chords.htm
Привет, Гость.
Предлагаем пройти революционный курс по гитаре.
Подарок от PrimaNota.Ru, забирай!