PrimaNota.ru - самый крупный в мире бесплатный архив песенных текстов, аккордов, табулатур и нот


Symposium - Easily Scared - таба, бас-таба, видео

Регистрация Запомнить меня
Войти через:  Facebook Google Twitter Vk Yandex Mail.ru

Symposium - Easily Scared - таба, бас-таба, видео

Печатать
Просмотров: 133
Title: Easily Scared
Artist: Symposium
Tabber: Philip Tweedie
Standard tuning
Listen to the track for timing and numbers of exact repeats

Intro with flange effect over Bass intro
|-------|
|-------|
|-4-----|
|-4-----|
|-2-----|
|-------|

Main riff/Chorus riff
Play clean
|--------------------------|-----------------------------|
|-------x--------x---------|-----------------------------|
|-4--4--x--7--7--x---------|-----------------------------| X4
|-4--4--x--7--7--x--7--7---|-(7)--4--4-----4--4--4--4----|
|-2--2--x--5--5--x--7--7---|-(7)--4--4-----4--4--4--4----|
|-------------------5--5---|-(5)--2--2-----2--2--2--2----|

Play dist
|--------------------------|-----------------------------|
|-------x--------x---------|-----------------------------|
|-4--4--x--7--7--x---------|-----------------------------| X8
|-4--4--x--7--7--x--7--7---|-(7)--4--4-----4--4--4--4----|
|-2--2--x--5--5--x--7--7---|-(7)--4--4-----4--4--4--4----|
|-------------------5--5---|-(5)--2--2-----2--2--2--2----|

Verse
I'm easily, easily scared. I'm so innocent and unaware.
I walk along with my eyes on the ground,
When you tell me to shut up, I don't make a sound.

PM----------------------------------------------------------------------|
|-----------------|-----------------|-----------------|-----------------|
|-----------------|-----------------|-----------------|-----------------| X2
|-----------------|-----------------|-----------------|-----------------|
|-7-7-7-7-7-7-7-7-|-----------------|-7-7-7-7-7-7-7-7-|-----------------|
|-5-5-5-5-5-5-5-5-|-5-5-5-8-8-8-8-8-|-5-5-5-5-5-5-5-5-|-5-5-5-8-8-8-8-8-|
|-----------------|-3-3-3-6-6-6-6-6-|-----------------|-3-3-3-6-6-6-6-6-|

I'm more than a freak, I'm more than a weirdo, I'm a dick, I'm a prick,
I'm a stupid moron.
I'm a fool, I'm a loon, I'm a witless buffoon, I'm a loser, I'm a turd,
I'm an unhealthy nerd.

|---------------------------|--------------------------|
|---------------------------|--------------------------|
|---------------------------|--------------------------| X3
|-7--7--7--10----10-10-10---|--5--5--5--8-----8--8--8--|
|-7--7--7--10----10-10-10---|--5--5--5--8-----8--8--8--|
|-5--5--5--8-----8--8--8----|--3--3--3--6-----6--6--6--|

|----------------------------|---------------------------|
|----------------------------|---------------------------|
|----------------------------|---------------------------|
|--7--7--7--10----10-10-10---|--5--5--5--8---------------|
|--7--7--7--10----10-10-10---|--5--5--5--8-(Hold note)---|
|--5--5--5--8-----8--8--8----|--3--3--3--6---------------|


Pre Chorus
Pm the 0 notes          notes in () are gtr 2
|-----------------|-------------(12)--(12)-----|
|-----------------|-------------(15b)-(15b-----|
|-----------------|--------------9-----9-------| X4
|-----------------|--------------9-----9-------|
|-----------------|--------------7-----7-------|
|-3-0-0-4-0-0-3-0-|-0-4-0-0--------------------|

|----------------------------|----------------------------|
|----------------------------|----------------------------|
|----------------------------|----------------------------|
|--2-----2--2-----2--2--2----|--2-----2--2-----2--2--2----|
|--2-----2--2-----2--2--2----|--2-----2--2-----2--2--2----|
|--0-----0--0-----0--0--0----|--0-----0--0-----0--0--0----|

|----------------------------|----------------|
|----------------------------|----------------|
|----------------------------|----------------|
|--4-----4--4-----4--4--4----|--4-------------|
|--4-----4--4-----4--4--4----|--4-(Hold note)-|
|--2-----2--2-----2--2--2----|--2-------------|

Chorus
Easily scared!
Easily scared!
Easily scared!
Easily!

|--------------------------|-----------------------------|
|-------x--------x---------|-----------------------------|
|-4--4--x--7--7--x---------|-----------------------------| X4
|-4--4--x--7--7--x--7--7---|-(7)--4--4-----4--4--4--4----|
|-2--2--x--5--5--x--7--7---|-(7)--4--4-----4--4--4--4----|
|-------------------5--5---|-(5)--2--2-----2--2--2--2----|

Verse
Stupid man in a stupid car, With a stupid face that won't,
Get him very far, yeah.
I'm easily, easily scared, But I'll still be here and singing,
Long after you dead.

PM----------------------------------------------------------------------|
|-----------------|-----------------|-----------------|-----------------|
|-----------------|-----------------|-----------------|-----------------| X2
|-----------------|-----------------|-----------------|-----------------|
|-7-7-7-7-7-7-7-7-|-----------------|-7-7-7-7-7-7-7-7-|-----------------|
|-5-5-5-5-5-5-5-5-|-5-5-5-8-8-8-8-8-|-5-5-5-5-5-5-5-5-|-5-5-5-8-8-8-8-8-|
|-----------------|-3-3-3-6-6-6-6-6-|-----------------|-3-3-3-6-6-6-6-6-|

I'm more than a freak, I'm more than a weirdo, I'm a dick, I'm a prick,
I'm a stupid moron.
I'm a fool, I'm a loon, I'm a witless buffoon, I'm a loser, I'm a turd,
I'm an unhealthy nerd.

|---------------------------|--------------------------|
|---------------------------|--------------------------|
|---------------------------|--------------------------| X3
|-7--7--7--10----10-10-10---|--5--5--5--8-----8--8--8--|
|-7--7--7--10----10-10-10---|--5--5--5--8-----8--8--8--|
|-5--5--5--8-----8--8--8----|--3--3--3--6-----6--6--6--|

|----------------------------|---------------------------|
|----------------------------|---------------------------|
|----------------------------|---------------------------|
|--7--7--7--10----10-10-10---|--5--5--5--8---------------|
|--7--7--7--10----10-10-10---|--5--5--5--8-(Hold note)---|
|--5--5--5--8-----8--8--8----|--3--3--3--6---------------|


Pre Chorus
Pm the 0 notes          notes in () are gtr 2
|-----------------|-------------(12)--(12)-----|
|-----------------|-------------(15b)-(15b-----|
|-----------------|--------------9-----9-------| X4
|-----------------|--------------9-----9-------|
|-----------------|--------------7-----7-------|
|-3-0-0-4-0-0-3-0-|-0-4-0-0--------------------|

|----------------------------|----------------------------|
|----------------------------|----------------------------|
|----------------------------|----------------------------|
|--2-----2--2-----2--2--2----|--2-----2--2-----2--2--2----|
|--2-----2--2-----2--2--2----|--2-----2--2-----2--2--2----|
|--0-----0--0-----0--0--0----|--0-----0--0-----0--0--0----|

|----------------------------|----------------|
|----------------------------|----------------|
|----------------------------|----------------|
|--4-----4--4-----4--4--4----|--4-------------|
|--4-----4--4-----4--4--4----|--4-(Hold note)-|
|--2-----2--2-----2--2--2----|--2-------------|

Bridge 
Bass solo then rejoin
|-------------------|----------------|-------------------|
|-------------------|----------------|-------------------|
|-------------------|----------------|-------------------|
|------0-2-4-0------|---------0-2-0--|------0-2-4-0------|
|-2-/4---------4-0--|-4--4--4--------|-2-/4---------4-0--|
|-------------------|-2--2-----------|-------------------|

|------------------|-------------------|----------------|
|------------------|-------------------|----------------|
|-----------4---4--|-------------------|----------------|
|---------2---2----|------0-2-4-0------|---------0-2-0--|
|-4--4-------------|-2-/4---------4-0--|-4--4--4--------|
|-2--2-------------|-------------------|-2--2-----------|

|-------------------|----------------|
|-------------------|----------------|
|-------------------|----------------|
|------0-2-4-0------|-------4-4-4-4--|
|-2-/4---------4-0--|-4--4--4-4-4-4--|
|-------------------|-2--2--2-2-2-2--|

Chorus
Easily scared!
Easily scared!
Easily scared!
Easily!

|--------------------------|-----------------------------|
|-------x--------x---------|-----------------------------|
|-4--4--x--7--7--x---------|-----------------------------| X8
|-4--4--x--7--7--x--7--7---|-(7)--4--4-----4--4--4--4----|
|-2--2--x--5--5--x--7--7---|-(7)--4--4-----4--4--4--4----|
|-------------------5--5---|-(5)--2--2-----2--2--2--2----|

|-----------------|-----------------|-----------------|
|-----------------|-----------------|-----------------|
|-4-4-4-4-4-4-4-4-|-4-4-4-4-4-4-4-4-|-4---------------| 
|-4-4-4-4-4-4-4-4-|-4-4-4-4-4-4-4-4-|-4---------------|
|-2-2-2-2-2-2-2-2-|-2-2-2-2-2-2-2-2-|-2---------------|
|-----------------|-----------------|-----------------|
Добавлено: 14.07.2015
Другие материалы по этой песне:

Страница создана 09.07.2015
http://primanota.ru/symposium/easily-scared-chords.htm
Привет, Гость.
Предлагаем пройти революционный курс по гитаре.
Подарок от PrimaNota.Ru, забирай!