PrimaNota.ru - самый крупный в мире бесплатный архив песенных текстов, аккордов, табулатур и нот


Symposium - Drink The Sunshine - таба, бас-таба, видео

Регистрация Запомнить меня
Войти через:  Facebook Google Twitter Vk Yandex Mail.ru

Symposium - Drink The Sunshine - таба, бас-таба, видео

Печатать
Просмотров: 161
Уроки эстрадного вокала в Санкт-Петербурге
Title: Drink The Sunshine
Artist: Symposium
Album: One day at a time EP
Tabber: Philip Tweedie

One of the first songs I tabbed out and realised I've not put up here! 
Tweaked it a bit since then :)
________________________________________________________________________________________

Intro
Guitar 1 x4 (first 2 times alone before band enters)
E||-----------------------------------|-----------------------------------||
B||-----------------------------------|-----------------------------------||
G||-13--13--13--13--13--13--13--13-13-|-11--11--11--11--11--11--11--11-11-||
D||-----------------------------------|-----------------------------------||
A||-11--11--11--11--11--11--11--11-11-|-9---9---9---9---9---9---9---9--9--||
E||-----------------------------------|-----------------------------------||

Guitar 2 x2 
e||---------------------------------|---------------------------------||
B||---------------------------------|---------------------------------||
G||---------------------------------|-7---7---7---7---7---7---7---7-7-||
D||-2---2---2---2---2---2---2---2-2-|-7---7---7---7---7---7---7---7-7-||
A||-2---2---2---2---2---2---2---2-2-|-5---5---5---5---5---5---5---5-5-||
E||-0---0---0---0---0---0---0---0-0-|---------------------------------||
________________________________________________________________________________________

Verse 1
Guitar 1 & 2 x4
e||---------------------------------|---------------------------------||
B||---------------------------------|---------------------------------||
G||---------------------------------|-7---7---7---7---7---7---7---7-7-||
D||-2---2---2---2---2---2---2---2-2-|-7---7---7---7---7---7---7---7-7-||
A||-2---2---2---2---2---2---2---2-2-|-5---5---5---5---5---5---5---5-5-||
E||-0---0---0---0---0---0---0---0-0-|---------------------------------||

Then 
Guitar 1 x2 
E||-----------------------------------|-----------------------------------||
B||-----------------------------------|-----------------------------------||
G||-13--13--13--13--13--13--13--13-13-|-11--11--11--11--11--11--11--11-11-||
D||-----------------------------------|-----------------------------------||
A||-11--11--11--11--11--11--11--11-11-|-9---9---9---9---9---9---9---9--9--||
E||-----------------------------------|-----------------------------------||

Guitar 2 x2 
e||---------------------------------|---------------------------------||
B||---------------------------------|---------------------------------||
G||---------------------------------|-7---7---7---7---7---7---7---7-7-||
D||-2---2---2---2---2---2---2---2-2-|-7---7---7---7---7---7---7---7-7-||
A||-2---2---2---2---2---2---2---2-2-|-5---5---5---5---5---5---5---5-5-||
E||-0---0---0---0---0---0---0---0-0-|---------------------------------||

Today I feel things going right, I slept so soundly all last night.
I feel all funny deep inside, We shall not turn out the light.
Christmas time in December,
The best time I can remember.
________________________________________________________________________________________

Pre chorus
Gtr 1 (band tacet)
e||-------------------------|-------------------------||
B||-------14----------14----|-------14----------14----||
G||----14----14----14----14-|----14----14----14----14-||
D||-14----------13----------|-12----------11----------||
A||-------------------------|-------------------------||
E||-------------------------|-------------------------||
________________________________________________________________________________________

Chorus 1 Gtr 1&2
e||---------------------------|--------------------------|
B||---------------------------|--------------------------|
G||-2------2--2--2--2--2--2-2-|-4--4--4--4--4--4--4--4-4-|
D||-2------2--2--2--2--2--2-2-|-4--4--4--4--4--4--4--4-4-|
A||-0------0--0--0--0--0--0-0-|-2--2--2--2--2--2--2--2-2-|
E||---------------------------|--------------------------|

e|--------------------------|---------------------------||
B|--------------------------|---------------------------||
G|-7--7--7--7--7--7--7--7-7-|-2------2--2--2--2--2--2-2-||  x2
D|-7--7--7--7--7--7--7--7-7-|-2------2--2--2--2--2--2-2-||
A|-5--5--5--5--5--5--5--5-5-|-0------0--0--0--0--0--0-0-||
E|--------------------------|---------------------------||
                
e|-----------------|-----------------|---------------------------|
B|-----------------|-----------------|---------------------------|
G|-5-5-5-5-5-5-5-5-|-7-7-7-7-7-7-7-7-|---------------------------|
D|-5-5-5-5-5-5-5-5-|-7-7-7-7-7-7-7-7-|-5--5--5--5-5-5--5--5--5-5-|
A|-3-3-3-3-3-3-3-3-|-5-5-5-5-5-5-5-5-|-5--5--5--5-5-5--5--5--5-5-|
E|-----------------|-----------------|-3--3--3--3-3-3--3--3--3-3-|
                                          
e|-------------------------|-----------------|-----------------|
B|-------------------------|-----------------|-----------------|
G|-------------------------|-5-5-5-5-5-5-5-5-|-7-7-7-7-7-7-7-7-|
D|-5--5--5--5-5-5--5--5--5-|-5-5-5-5-5-5-5-5-|-7-7-7-7-7-7-7-7-|
A|-5--5--5--5-5-5--5--5--5-|-3-3-3-3-3-3-3-3-|-5-5-5-5-5-5-5-5-|
E|-3--3--3--3-3-3--3--3--3-|-----------------|-----------------|

e|---------------------------|-----------------||
B|---------------------------|-----------------||
G|---------------------------|---4-4-4-4-4-4-4-||
D|-5--5--5--5-5-5--5--5--5-5-|---4-4-4-4-4-4-4-||
A|-5--5--5--5-5-5--5--5--5-5-|---2-2-2-2-2-2-2-||
E|-3--3--3--3-3-3--3--3--3-3-|-----------------||

We drink the sunshine, Which is heaven sent.
We're doing things which we've, Only ever dreamt.
1 2 3 4 5 6 7 8
Hurry children don't you dare be late.
________________________________________________________________________________________

Verse 2
Guitar 1 & 2 x4
e||---------------------------------|---------------------------------||
B||---------------------------------|---------------------------------||
G||---------------------------------|-7---7---7---7---7---7---7---7-7-||
D||-2---2---2---2---2---2---2---2-2-|-7---7---7---7---7---7---7---7-7-||
A||-2---2---2---2---2---2---2---2-2-|-5---5---5---5---5---5---5---5-5-||
E||-0---0---0---0---0---0---0---0-0-|---------------------------------||

Then 
Guitar 1 x2 
E||-----------------------------------|-----------------------------------||
B||-----------------------------------|-----------------------------------||
G||-13--13--13--13--13--13--13--13-13-|-11--11--11--11--11--11--11--11-11-||
D||-----------------------------------|-----------------------------------||
A||-11--11--11--11--11--11--11--11-11-|-9---9---9---9---9---9---9---9--9--||
E||-----------------------------------|-----------------------------------||

Guitar 2 x2 
e||---------------------------------|---------------------------------||
B||---------------------------------|---------------------------------||
G||---------------------------------|-7---7---7---7---7---7---7---7-7-||
D||-2---2---2---2---2---2---2---2-2-|-7---7---7---7---7---7---7---7-7-||
A||-2---2---2---2---2---2---2---2-2-|-5---5---5---5---5---5---5---5-5-||
E||-0---0---0---0---0---0---0---0-0-|---------------------------------||

I don't know which way to turn, It's such a lovely way to burn.
I wonder will I ever learn, I know I'm not the only one.
You don't have to be clever,
Let's all fly up to heaven.
________________________________________________________________________________________

Pre chorus
Gtr 1 (band tacet)
e||-------------------------|-------------------------||
B||-------14----------14----|-------14----------14----||
G||----14----14----14----14-|----14----14----14----14-||
D||-14----------13----------|-12----------11----------||
A||-------------------------|-------------------------||
E||-------------------------|-------------------------||
________________________________________________________________________________________

Chorus 2 Gtr 1&2
e||---------------------------|--------------------------|
B||---------------------------|--------------------------|
G||-2------2--2--2--2--2--2-2-|-4--4--4--4--4--4--4--4-4-|
D||-2------2--2--2--2--2--2-2-|-4--4--4--4--4--4--4--4-4-|
A||-0------0--0--0--0--0--0-0-|-2--2--2--2--2--2--2--2-2-|
E||---------------------------|--------------------------|

e|--------------------------|---------------------------||
B|--------------------------|---------------------------||
G|-7--7--7--7--7--7--7--7-7-|-2------2--2--2--2--2--2-2-||  x2
D|-7--7--7--7--7--7--7--7-7-|-2------2--2--2--2--2--2-2-||
A|-5--5--5--5--5--5--5--5-5-|-0------0--0--0--0--0--0-0-||
E|--------------------------|---------------------------||
                
e|-----------------|-----------------|---------------------------|
B|-----------------|-----------------|---------------------------|
G|-5-5-5-5-5-5-5-5-|-7-7-7-7-7-7-7-7-|---------------------------|
D|-5-5-5-5-5-5-5-5-|-7-7-7-7-7-7-7-7-|-5--5--5--5-5-5--5--5--5-5-|
A|-3-3-3-3-3-3-3-3-|-5-5-5-5-5-5-5-5-|-5--5--5--5-5-5--5--5--5-5-|
E|-----------------|-----------------|-3--3--3--3-3-3--3--3--3-3-|
                                          
e|-------------------------|-----------------|-----------------|
B|-------------------------|-----------------|-----------------|
G|-------------------------|-5-5-5-5-5-5-5-5-|-7-7-7-7-7-7-7-7-|
D|-5--5--5--5-5-5--5--5--5-|-5-5-5-5-5-5-5-5-|-7-7-7-7-7-7-7-7-|
A|-5--5--5--5-5-5--5--5--5-|-3-3-3-3-3-3-3-3-|-5-5-5-5-5-5-5-5-|
E|-3--3--3--3-3-3--3--3--3-|-----------------|-----------------|

e|---------------------------|-----------------||
B|---------------------------|-----------------||
G|---------------------------|---4-4-4-4-4-4-4-||
D|-5--5--5--5-5-5--5--5--5-5-|---4-4-4-4-4-4-4-||
A|-5--5--5--5-5-5--5--5--5-5-|---2-2-2-2-2-2-2-||
E|-3--3--3--3-3-3--3--3--3-3-|-----------------||

We drink the sunshine, Which is heaven sent.
We're doing things which we've, Only ever dreamt.
A B C D E F G and H
Hurry now and don't you dare be late.
________________________________________________________________________________________

Solo
Gtr 1 
e||--7----------|-----------9--7-|-(7)-----------|----------------|
B||------9------|--------9-------|-----12-9------|--------9--9--9-|
G||--------9--7-|-(7)-9----------|----------9--7-|-(7)-9----------|
D||-------------|----------------|---------------|----------------|
A||-------------|----------------|---------------|----------------|
E||-------------|----------------|---------------|----------------|
                                        
e|---------------|-----------9--7-|-(7)-----------|----------------||
B|----10--9------|--------9-------|-----12-9------|--------9--9--9-||
G|-9--------9--7-|-(7)-9----------|----------9--7-|-(7)-9----------||
D|---------------|----------------|---------------|----------------||
A|---------------|----------------|---------------|----------------||
E|---------------|----------------|---------------|----------------||

E||-----------------------------------|-----------------------------------||
B||-----------------------------------|-----------------------------------||
G||-13--13--13--13--13--13--13--13-13-|-11--11--11--11--11--11--11--11-11-|| x4
D||-----------------------------------|-----------------------------------||
A||-11--11--11--11--11--11--11--11-11-|-9---9---9---9---9---9---9---9--9--||
E||-----------------------------------|-----------------------------------||

Gtr 2 x8
e||---------------------------------|---------------------------------||
B||---------------------------------|---------------------------------||
G||---------------------------------|-7---7---7---7---7---7---7---7-7-||
D||-2---2---2---2---2---2---2---2-2-|-7---7---7---7---7---7---7---7-7-||
A||-2---2---2---2---2---2---2---2-2-|-5---5---5---5---5---5---5---5-5-||
E||-0---0---0---0---0---0---0---0-0-|---------------------------------||

You don't have to be clever,
Let's all fly up to heaven.
________________________________________________________________________________________

Outro Chorus 3 Gtr 1&2
e||---------------------------|--------------------------|
B||---------------------------|--------------------------|
G||-2------2--2--2--2--2--2-2-|-4--4--4--4--4--4--4--4-4-|
D||-2------2--2--2--2--2--2-2-|-4--4--4--4--4--4--4--4-4-|
A||-0------0--0--0--0--0--0-0-|-2--2--2--2--2--2--2--2-2-|
E||---------------------------|--------------------------|

e|--------------------------|---------------------------||
B|--------------------------|---------------------------||
G|-7--7--7--7--7--7--7--7-7-|-2------2--2--2--2--2--2-2-||  x2
D|-7--7--7--7--7--7--7--7-7-|-2------2--2--2--2--2--2-2-||
A|-5--5--5--5--5--5--5--5-5-|-0------0--0--0--0--0--0-0-||
E|--------------------------|---------------------------||
                
Gtr 1 (Gtr 2 on pick slide on bar 9)
e||-------------------------|-------------------------|-------------------------|
B||-------14----------14----|-------14----------14----|-------14----------14----|
G||----14----14----14----14-|----14----14----14----14-|----14----14----14----14-|
D||-14----------14----------|-13----------13----------|-12----------12----------|
A||-------------------------|-------------------------|-------------------------|
E||-------------------------|-------------------------|-------------------------|

e|-------------------------|-------------------------|-------------------------|
B|-------14----------14----|-------14----------14----|-------14----------14----|
G|----14----14----14----14-|----14----14----14----14-|----14----14----14----14-|
D|-11----------11----------|-14----------14----------|-13----------13----------|
A|-------------------------|-------------------------|-------------------------|
E|-------------------------|-------------------------|-------------------------|

  Gtr 1
e|-------------------------|----|----------|
B|-------14----------14----|-14-|-(14)-----|
G|----14----14----14----14-|-14-|-(14)-----|
D|-12----------12----------|-11-|-(11)-----|
A|-------------------------|----|----------|
E|-------------------------|----|----------|
 |
 |Gtr2
e|-------------------------|----|----------|
B|-------------------------|----|----------|
G|-------------------------|----|----------|
D|-------------------------|----|-----x\\\-|
A|-------------------------|----|-----x\\\-|
E|-------------------------|----|-----x\\\-|

Gtr 1 & 2
e|---------------------------|--------------------------|
B|---------------------------|--------------------------|
G|-2------2--2--2--2--2--2-2-|-4--4--4--4--4--4--4--4-4-|
D|-2------2--2--2--2--2--2-2-|-4--4--4--4--4--4--4--4-4-|
A|-0------0--0--0--0--0--0-0-|-2--2--2--2--2--2--2--2-2-|
E|---------------------------|--------------------------|

e|--------------------------|---------------------------|
B|--------------------------|---------------------------|
G|-7--7--7--7--7--7--7--7-7-|-2------2--2--2--2--2--2-2-|
D|-7--7--7--7--7--7--7--7-7-|-2------2--2--2--2--2--2-2-|
A|-5--5--5--5--5--5--5--5-5-|-0------0--0--0--0--0--0-0-|
E|--------------------------|---------------------------|

  Gtr 1
e|-------------------------|--------------------------|--------------------------|----||
B|-------14----------14----|-------14----------14-----|-------14----------14-----|-14-||
G|----14----14----14----14-|----14----14----14----14--|----14----14----14----14--|-14-||
D|-14----------14----------|-13----------13-----------|-12----------12-----------|-11-||
A|-------------------------|--------------------------|--------------------------|----||
E|-------------------------|--------------------------|--------------------------|----||
 |
 |Gtr 2
e|-------------------------|--------------------------|--------------------------|----||
B|-------------------------|--------------------------|--------------------------|----||
G|-2----2--2--2--2--2--2-2-|-4--4--4--4--4--4--4--4-4-|-7--7--7--7--7--7--7--7-7-|-2--||
D|-2----2--2--2--2--2--2-2-|-4--4--4--4--4--4--4--4-4-|-7--7--7--7--7--7--7--7-7-|-2--||
A|-0----0--0--0--0--0--0-0-|-2--2--2--2--2--2--2--2-2-|-5--5--5--5--5--5--5--5-5-|-0--||
E|-------------------------|--------------------------|--------------------------|----||

We drink the sunshine, Which is heaven sent.
We're doing things which we've, Only ever dreamt.

The world is ours today and every night,
We're having fun for the first time in our lives...

We drink the sunshine, Which is heaven sent.
We're doing things which we've, Only ever dreamt.
________________________________________________________________________________________






Enjoy
Please rate and leave constructive comments/feedback
Добавлено: 14.07.2015
Другие материалы по этой песне:

Страница создана 02.06.2012
http://primanota.ru/symposium/drink-the-sunshine-chords.htm
Привет, Гость.
Предлагаем пройти революционный курс по гитаре.
Подарок от PrimaNota.Ru, забирай!