PrimaNota.ru - самый крупный в мире бесплатный архив песенных текстов, аккордов, табулатур и нот


Symphony In Peril - Stilletto - таба, видео

Регистрация Запомнить меня
Войти через:  Facebook Google Twitter Vk Yandex Mail.ru

Symphony In Peril - Stilletto - таба, видео

Печатать
Просмотров: 131
Уроки эстрадного вокала в Санкт-Петербурге
------------------------------------------------------------------------------- 
                   STILLETTO – SYMPHONY IN PERIL
-------------------------------------------------------------------------------

Tabbed (for the first time) by: Stu King
Email: idunnoanything_365@hotmail.com

Tuning: Drop C

Remember, this is my first tab and I'm only submitting it so that people 
will try to evolve on it because for all I know it is completely wrong. 
Send me an Email if you know differently, Thank you!


                .               .x2                                             
|--------------------------------|-------------|
|--------------------------------|-------------|
|--------------------------------|-------------|
|--------------------------------|-6~----5~----|
|-6^0-8^0-5^0---0-6^0-9^0-5^0---0|-6~----5~----|
|---------------0---------------0|-6~----5~----|
                .               .x2
|--------------------------------|-------------|
|--------------------------------|-------------|
|--------------------------------|-------------|
|--------------------------------|-0~----------|  These are tens not one, zeros
|-6^0-8^0-5^0---0-6^0-9^0-5^0---0|-0~----------|   |  (incase you were 
|---------------0---------------0|-0~----------|   |    wondering)
 .......                                           |              x2
|--------|-----------------------------------------|--------------|
|--------|-----------------------------------------|--------------|
|--------|-----------------------------------------|--------------|
|0000000-|----------------------------------------\|/-------------|
|0000000-|-5555555555/88888\77777/10101010101010101010\33333/77777|
|0000000-|--------------------------------------------------------|

   GTR#1
|---------------------------------------------|-----------|
|---------------------------------------------|-----------|
|---------------------------------------------|-----------|
|---------------------------------------------|-----------|----->Play first 
|-5555555555/88888\77777/10101010101010101010\|33333/77777|    / time
|---------------------------------------------|-----------|   /
|  GTR#2                                                     /
|--------------------------------------------------|--------/--|-(Second time)|
|--------------------------------------------------|-------/---|--------------|
|--------------------------------------------------|------/----|-5—-5-3-------|
|--------------------------------------------------|-----------|-5—-5-3-2--0--|
|-7777777777/1010101010\99999/12121212121212121212\|55555/99999|-3—-3-1-2--0--|
|--------------------------------------------------|-----------|--------2--0--|
                     ..  ... x16
|-----------------|----------|
|--PICK SLIDE-----|----------|
|-----------------|----------|
|-\\\\\\\-///////-|--00--000-|
|-\\\\\\\-///////-|--00--000-|
|-\\\\\\\-///////-|--00--000-|

  ..  ...     ..  ...     ..  ...     ..  ...    x4
|------------------------------------------------|-------------|------------|
|------------------------------------------------|-------------|------------|
|------------------------------------------------|-0~----------|-0~---------|
|-00--000-----00--000-----00--000-3---00--000-5*-|-0~----------|-0~---------|
|-00--000-5---00--000-3---00--000-----00--000----|-0~----------|-0~---------|
|-00--000-----00--000-----00--000-----00--000----|-0~----------|-0~---------|
     ......                    ......                x2
|----------------------------------------------------|
|----------------------------------------------------|
|----------------------------------------------------|
|-0--000000-----------------0--000000----------------|
|-0--000000—-4^5--0^1-------0--000000—-0^1-----------|
|-0--000000------------3^0—-0--000000-------3^0—-1^0-|
                   x4
|------------------|--------------|
|------------------|--------------|
|------------------|--------------|
|------------------|--------------|
|-6^7~-1^0-------1-|--/7~~~~~~~~~-|
|-----------3^0----|--------------|

|----------------------------------------------------|
|----------------------------------------------------|
|------------BREAK DOWN------------------------------|
|----------------------------------------------------|
|----------------------------------------------------|
|----------------------------------------------------|

  Write this yourself. It's not that hard, only awesome.
Добавлено: 18.03.2012
Вам также может быть интересно:
Другие материалы по этой песне:
  • Аккорды и текст

Страница создана 18.03.2012
http://primanota.ru/symphony-in-peril/stilletto-chords.htm
Привет, Гость.
Предлагаем пройти революционный курс по гитаре.
Подарок от PrimaNota.Ru, забирай!