PrimaNota.ru - самый крупный в мире бесплатный архив песенных текстов, аккордов, табулатур и нот


Sylvan - Signed Away - аккорды и текст, видео

Регистрация Запомнить меня
Войти через:  Facebook Google Twitter Vk Yandex Mail.ru

Sylvan - Signed Away - аккорды и текст, видео

Печатать
Просмотров: 71
Signed Away
Sylvan
                                        Artist - Sylvan
                                       *****************
                                      Song - Signed Away
                                     ********************
                                        Album - Presets
                                       *****************
                                     Tabbed By - Ayreon77
                                    **********************




Intro
Bm G  Bm  G

-----------------------------------------------------
VERSE 1
********
Bm          G
 I gave you truth - you gave me nothing
Bm           G    
 I broke and you - took advantage of it
Bm          G
I wrote the lines - you never read them with me
A               F#
Just spoke inside insidiously

-----------------------------------------------------
vERSE 2
********
Bm                     G
 I knew my fortune but believed my lies
Bm                         G
 A million reasons just to prove me right
Bm                           G
 I built it with you but without a doubt
          A                    F#
You where never with me, now I found it out...

-----------------------------------------------------
CHORUS
*******
  G        A     Bm
I signed my life away
                       G       A           Bm
And spilled the ink of trust I should have saved
                 G       A       Bm
I offered all my tears I used to hide
                     G       A    Bm
To blur the lines of truth I kept inside

[-----10-9-10-----10-9-10----10-9-10--12-10-9-10--|
[--------------10---------------------------------|
[--11---------------------11----------------------|
[-------------------------------------------------|
[-------------------------------------------------|
[-------------------------------------------------|


[-----10-9-10-----10-9-10----10-9-10----10-9-10---|
[--------------10---------------------------------|
[--11---------------------11---------11-----------|
[-------------------------------------------------|
[-------------------------------------------------|
[-------------------------------------------------|


[-----10-9-10-----10-9-10----10-9-10--12-10-9-10--|
[--------------10---------------------------------|
[--11---------------------11----------------------|
[-------------------------------------------------|
[-------------------------------------------------|
[-------------------------------------------------|


[-----10-9-10-----10-9-10-----|
[--------------10---------12--|
[--11-------------------------|
[-----------------------------|
[-----------------------------|
[-----------------------------|


-----------------------------------------------------
Bm G  Bm  G

-----------------------------------------------------

VERSE 3
********                                  
         Bm                              G
If you'd asked for rainbows - would have brought them here
       Bm                              G
For in brightest colors you would have shone for me
      Bm                              G
And a thousand treasures - would have searched for all
        A                           F#
But the colors darkened - they will shine no more...

-----------------------------------------------------

BRIDGE
*******
Em      D        Bm        A              Em
        Whoooo       And I write it down  inside                                    
      D            G    G                Em
And I fight and I       turn the page of sighs
      D            Bm         A          Em
And I feel it here tonight    tonight
      D           G             A
And I cried and I signed off my life


(Keep playing this through the Bridge.)
                                   repeat from here to here
                   |------------------------------------------------------|

[-10---12----9-----|-10---10---10---12---9----|-10---10---10---12---9-----|
[----8----8-----8--|----8----8----8----8----8-|----7----7----7----7-----7-|
[------------------|--------------------------|---------------------------|
[------------------|--------------------------|---------------------------|
[------------------|--------------------------|---------------------------|
[------------------|--------------------------|---------------------------|


-----------------------------------------------------
G  A  Bm X4

[---------|---------|---------|---------|
[---------|---------|---------|---------|
[---7-6-7-|---7-6-7-|---7-6-7-|---7-6-7-|
[-5-------|-7-------|-4-------|-4-------|
[---------|---------|---------|---------|
[---------|---------|---------|---------|X4

-----------------------------------------------------
CHORUS
*******
[---------|---------|---------|---------|
[---------|---------|---------|---------|
[---7-6-7-|---7-6-7-|---7-6-7-|---7-6-7-|
[-5-------|-7-------|-4-------|-4-------|
[---------|---------|---------|---------|
[---------|---------|---------|---------|Repeat till end of song.

-----------------------------------------------------
G     A   Bm
Whooo     Whooooa

Repeat too end.


Enjoy.............
Добавлено: 06.09.2013
Другие материалы по этой песне:
  • Аккорды и текст

Страница создана 06.09.2013
http://primanota.ru/sylvan/signed-away-chords.htm
Привет, Гость.
Предлагаем пройти революционный курс по гитаре.
Подарок от PrimaNota.Ru, забирай!