PrimaNota.ru - самый крупный в мире бесплатный архив песенных текстов, аккордов, табулатур и нот


Sylvan - Posthumous Silence - таба, видео

Регистрация Запомнить меня
Войти через:  Facebook Google Twitter Vk Yandex Mail.ru

Sylvan - Posthumous Silence - таба, видео

Печатать
Просмотров: 144
Уроки эстрадного вокала в Санкт-Петербурге
                                       Artist - Sylvan
                                      -----------------
                                  Song - Posthumous Silence
                                 ---------------------------
                                 Album - Posthumous Silence
                                ----------------------------  

Guitar Solo                                 

01:58
[------s--------s----------------------------------------------------------|
[----10\12-10-12\13-12---s-------------------------------------------h-----|
[--9--------------------9\11-14--------s-------------------------9--11-12--|
[--------------------------------12-10-\14----p----------p-----------------|
[-------------------------------------------14-12-14---14-12-14------------|
[--------------------------------------------------------------------------|


[------s--------s------|---s----------------------------------|
[----10\12-10-12\13-12-|-13\15-13-12----------s-------s-------|
[--9-------------------|-------------11-12--12\14---14\16-12--|
[----------------------|--------------------------------------|
[----------------------|--------------------------------------|
[----------------------|--------------------------------------|

                       h  h     b       p          p
[-------------h--h---12-14-15--15--|--15-14------14-12-----|
[----h--h---12-14-15---------------|--------14---------12--|
[--12-14-15------------------------|-----------------------|
[----------------------------------|-----------------------|
[----------------------------------|-----------------------|
[----------------------------------|-----------------------|

                                             h  h      h  h     b
[----s-------------------------|---h--h---12-14-15--12-14-15--17--17-15-14-|
[--13\15-13-12-----------------|-12-14-15----------------------------------|
[--------------11-12--14-16-12-|-------------------------------------------|
[------------------------------|-------------------------------------------|
[------------------------------|-------------------------------------------|
[------------------------------|-------------------------------------------|

             b                        s        s
[----s------17--17-15-14------12-|--15\19-17-19\20-19--14-17-15-14------br-|
[--15\17-15--------------15-12---|----------------------------------15--15-|
[--------------------------------|-----------------------------------------|
[--------------------------------|-----------------------------------------|
[--------------------------------|-----------------------------------------|
[--------------------------------|-----------------------------------------|


[-----------------|----s--------s------------|---s-------------------------|
[---s-------------|--10\12-10-12\13-12-------|-13\15-13-12---h------h------|
[-11\14-12-11--9--|--------------------11-12-|-------------11-12--12-14-11-|
[-----------------|--------------------------|-----------------------------|
[-----------------|--------------------------|-----------------------------|
[-----------------|--------------------------|-----------------------------|


vocals come back in, solos in between.
                          03:05       03:15
[-------------s----------|---br-----|--------------------------|
[-----------13\15-10-12--|--15--15--|----s---------------------|
[-9-11-12----------------|----------|--12\15-12-11---------h---|
[------------------------|----------|--------------12----12-14-|
[------------------------|----------|-----------------14-------|
[------------------------|----------|--------------------------|


  03:26         b   03:35
[----h---10----10--|----------------------------------|--------------------|
[--10-12----12-----|----------------------------------|--------------------|
[------------------|---h-p----------------------------|----14-11--12-14-16-|
[------------------|--4-5-4------2---s--s-------------|-14-----------------|
[------------------|--------5-2--2--2\10\9--10-12-14--|--------------------|
[------------------|-------------0-----------------------------------------|

                                                   br
[---br-----|----------------------------s-------|-15-14-15-14------s----s--|
[--15------|--------------------------13\15-12--|-------------15-15\17--\--|
[------14--|--12-11------------11-12------------|--------------------------|
[----------|--------12---s--14------------------|--------------------------|
[----------|-----------12\14--------------------|--------------------------|
[----------|------------------------------------|--------------------------|

03:58
[-----------------|-----------------|--------------|--------------|
[----s------------|----s------------|----------s---|----h--p------|
[--12\14-12-11----|--12\14-12-11----|--11-12-12\14-|--11-12-11-9--|
[--------------12-|--------------14-|--------------|--------------|
[-----------------|-----------------|--------------|--------------|
[-----------------|-----------------|--------------|--------------|
[-----------------|-----------------|--------------|--------------|

                                              s      s     b
[----s--------s----------p---------------12-14\15--15\17--17--22---|
[--10\12-10-12\13-12---12-10-12--10-12-----------------------------|
[------------------------------------------------------------------|
[------------------------------------------------------------------|
[------------------------------------------------------------------|
[------------------------------------------------------------------|


I never Bothered doing the chords or vocals, there was already one on UG
but it was missing the solo. So enjoy. Great tune.....
Добавлено: 09.08.2013
Другие материалы по этой песне:
  • Аккорды и текст

Страница создана 09.08.2013
http://primanota.ru/sylvan/posthumous-silence-chords.htm
Привет, Гость.
Предлагаем пройти революционный курс по гитаре.
Подарок от PrimaNota.Ru, забирай!