PrimaNota.ru - самый крупный в мире бесплатный архив песенных текстов, аккордов, табулатур и нот


Sylvain Lux - Close To The Mirror - аккорды и текст, видео

Регистрация Запомнить меня
Войти через:  Facebook Google Twitter Vk Yandex Mail.ru

Sylvain Lux - Close To The Mirror - аккорды и текст, видео

Печатать
Просмотров: 239
Уроки эстрадного вокала в Санкт-Петербурге
Close To The Mirror
Sylvain Lux
-------------------------------------------------------------------------------
                             Sylvain Lux - Close to the Mirror
-------------------------------------------------------------------------------

Tabbed by: guilherme222

Song from the album Electro Pop Songs by Sylvain Lux. Featured in the Deadpool video game, also known as
Surprise Party Theme. Here you have both the chords and the tab, and I put them in the way that works best in my
opinion, but if you want, you can play the first riff for Verse 1 and Chorus and the second riff for Verse 2.
You can also play both riffs with the Dm Bb F C chord progression and it works just fine. The identation is also
made so the chords match the words. Enjoy!

Tuning: Standard

Chords used:

Dm xx0231
Bb x13331
F  133211
C  x32010

Intro/ First Riff:

e|-----------------1-1---------------------3-3-1-----|
B|-1-3-1-3-1-3-3-3-----3-1-1-1---1-3-------------3-3-|
G|-----------------------------2-----2-2-2-----------|
D|---------------------------------------------------|
A|---------------------------------------------------|
E|---------------------------------------------------|

Dm Bb F C

Verse 1:

Dm 
Don't you think it's high time we took a ride
Bb              F
Drove it to the skyline
                 C
Let me swing by, in a little while
Dm
Hit you with the perfect line
Bb        F
We can go freestyle
           C 
You and I, in a freefall

Chorus:

Bb                              C
When you step close to the mirror
        F                     Dm
I get a real good look at myself
             Bb 
So what it's gonna be
            C
Can you set yourself free?
                F
Cause the stars are all about to come out

Link/ Second riff:

e|-3-3-1---------1---1---3-3-1-----------------|
B|-------3-3-1-3---3---3-------3-3-1-1-3---3---|
G|---------------------------------------2---2-|
D|---------------------------------------------|
A|---------------------------------------------|
E|---------------------------------------------| x2

e|-3-3-1---------|
B|-------3-3-1-3-|
G|---------------|
D|---------------|
A|---------------|
E|---------------|

Verse 2:

Dm
I know it's such a fine line at your side
Bb              F
Standing in the highlights
                 C
Give me one try, just to make you smile
Dm
Slide down the firewall
Bb            F 
Now you're so wild eyed
           C
Do or die, it's a free for all

Chorus:

Bb                              C
When you step close to the mirror
        F                      Dm
I get a real good look at myself
             Bb 
So what it's gonna be
            C
Can you set yourself free?
                F                     Dm
Cause the stars are all about to come out

Bb                              C
When you step close to the mirror
        F                     Dm
I get a real good look at myself
             Bb 
So what it's gonna be
            C
Can you set yourself free?
Dm
Cause the stars are all about to come out
Come out, come out
                                        F
Cause the stars are all about to come out
Добавлено: 26.06.2016
Другие материалы по этой песне:
  • Аккорды и текст

Страница создана 26.06.2016
http://primanota.ru/sylvain-lux/close-to-mirror-chords.htm
Привет, Гость.
Предлагаем пройти революционный курс по гитаре.
Подарок от PrimaNota.Ru, забирай!