PrimaNota.ru - самый крупный в мире бесплатный архив песенных текстов, аккордов, табулатур и нот


Syd - Mexico - таба, видео

Регистрация Запомнить меня
Войти через:  Facebook Google Twitter Vk Yandex Mail.ru

Syd - Mexico - таба, видео

Печатать
Просмотров: 99
'Mexico - Syd' tabbed by Julius (me AT vagbattle DOT com)

Verses;
E|-----------------|-------------3----|--3-3----3-2-----|
A|-1------1--1-----|-------1----------|-----------------|
D|-0------0--0-----|-----0---0--------|--------------5--|
G|----0h2-------2--|-0h2-------2-2--0h|2---2--2---0--4--|
B|-3---------3-----|------------------|-----------------|
E|-----------------|------------------|--------------5--|

E|-----------------|------------------|-----------------|
A|---------------0-|-3-----3-3------3-|-----------------|
D|-----5-5-----5---|-0-----0-0--------|-0---------------|
G|-----4-4-0h4-----|------------------|-----------------|
B|-----------------|------------------|-----------------|
E|-0h5---5---------|-3-0h3---3-0h3----|----3------------|


Chorus;
sorry I havent worked out the picking yet, but the
chords are (in this order);

G  F#  Em  C  D
3  3   0   0  2
3  3   0   1  3
0  0   0   0  2
0  2   2   2  0
2  x   2   3  x
3  2   0   0  x

Now you can just strum these (making sure on the F#
that u touch the A string to
mute the note), but the picking is just similar to the
verses. When I play it I
just pick a few notes together for the G and F# and
then play on the Em by pulling
off my middle finger (on the 2nd fret of the D
string), do the same for the C chord
just like the verses, and then normal multiple string
picking for the D again.
Sorry this sounds vague but its the best way to
describe it...
     
Добавлено: 24.07.2013
Вам также может быть интересно:
Другие материалы по этой песне:
  • Аккорды и текст

Страница создана 24.07.2013
http://primanota.ru/syd/mexico-chords.htm
Привет, Гость.
Предлагаем пройти революционный курс по гитаре.
Подарок от PrimaNota.Ru, забирай!