PrimaNota.ru - самый крупный в мире бесплатный архив песенных текстов, аккордов, табулатур и нот


Sword - Winters Wolves - таба, видео

Регистрация Запомнить меня
Войти через:  Facebook Google Twitter Vk Yandex Mail.ru

Sword - Winters Wolves - таба, видео

Печатать
Просмотров: 108
Drop c tuning 

intro
|--------------------------------------------------------------------|
|--------------------------------------------------------------------|
|--------------------------------------------------------------------|
|--------------------------------------------------------------------|
|--------------------------------------------------------------------|
|-1-0-0-0----1-0-0-0----1-0-0-0-----1-0-0-0-----1-0-0-0----1-0-0-0---|

|-----------|---------------------------------------------|
|-----------|---------------------------------------------|
|-----------|---------------------------------------------|
|---5/7--7--|---------------------------------------------|
|---3/5--5--|---------------------------------------------|
|-0---------|-1-0-0-0----1-0-0-0----1-0-0-0----1-0-0-0----|

|--------------------|---------------------------------------------|
|--------------------|---------------------------------------------|
|--------------------|---------------------------------------------|
|---5/7--7---5/7--7--|---------------------------------------------|
|---3/5--5---3/5--5--|---------------------------------------------|
|-0--------0---------|-1-0-0-0----1-0-0-0----1-0-0-0----1-0-0-0----|

|------------------------------------|
|------------------------------------|
|------------------------------------|
|---5/7--7---5/7--7--5/7--7--5/7--7--|play this bar 3x
|---3/5--5---3/5--5--3/5--5--3/5--5--|
|-0--------0--------0-------0--------|

intro solo
|------------------------------------------------------------------------|
|-13(15)13(15)-13--13-12-10-12-10-8--------------------------------13----|
|---------------------------------------------10----10-12-12-12h14---12--|
|-------------------------------------9-10-12----12----------------------|
|------------------------------------------------------------------------|
|------------------------------------------------------------------------|

|-10-8-10-13-10-8-10-8-10-13-10-8-10-8-10-13-10-8-13-10-8-13-10-8-13-10-8-|
|-------------------------------------------------------------------------|
|-------------------------------------------------------------------------|
|-------------------------------------------------------------------------|
|-------------------------------------------------------------------------|
|-------------------------------------------------------------------------|

|-13(15)13(15)-13p12p10----------------------------|
|----------------------13p12p10--------------------|
|------------------------------12p10p9-10-9--------|
|-------------------------------------------10-12--|
|--------------------------------------------------|
|--------------------------------------------------|

|----------|
|----------|
|----------|
|----------|8x then vocals come in
|----------|
|-0-0-1-0--|

|---------|         |---------------|
|---------|         |---------------|
|---------|6x then  |---------------|
|---------|         |-6-6-----------|
|---------|         |-4-4--5-6-5-6--|
|-0-0-1-0-|         |------5-6-5-6--|

chorus
|-----------------------------------------------------------------|
|-----------------------------------------------------------------|
|-----------------------------------------------------------------|
|--------------------------------7-5-5-5-5-5-5-5-6-6-6-6----------|
|--------------------------------5-5-5-5-5-5-5-5-4-4-4-4-5-6-5-6--|
|-0-0-0-0-0-0-0-0-0-0-0-0-0-0-0-0------------------------5-6-5-6--| 4 x

middle section
|-------------------------------------------------------------|
|-------------------------------------------------------------|
|-------------------------------------------------------------|
|--------------------------6-6--------------------------------|
|-5---0-6-5--0-6-5--0-6-5--4-4--5---0-6-5--0-6-5--0-6-5--1-1--|
|-5---0-6-5--0-6-5--0-6-5-------5---0-6-5--0-6-5--0-6-5--1-1--|

play riff with tail 4 times
|--------------------------| 3x then|-----------------------|
|--------------------------|        |-----------------------|
|--------------------------|        |-----------------------| 
|--------------------------|        |-----------------------|
|--------------------------|        |-----------------------|
|-1p0-0-0-0-0-0-0-0-0-0-0--|        |-6-5-6-5-6-5-6-5-6-5-6-|

|-------------------------|3x then |---------------------------|
|-------------------------|        |---------------------------|
|-------------------------|        |---------------------------|
|-5-7---------------------|        |---------------------------|
|-3/5---------------------|        |-3-5-3-5-3-5-3-5-3-5-6-5-3-|
|-----0-0-0-0-0-0-0-0-0-0-|        |---------------------------|

|--------------------------|3x then |-----------------------|
|--------------------------|        |-----------------------|
|--------------------------|        |-----------------------|
|-5/7--7-7-7-7-7-7-7-7-7-7-|        |-5-5-5-5-5-5--5/4-5/4--|
|-3/5--5-5-5-5-5-5-5-5-5-5-|        |-3-3-3-3-3-3--3/2-3/2--|
|--------------------------|        |-----------------0-----|

|--------------------------|        |-------------------------|
|--------------------------|3x then |-------------------------|
|--------------------------|        |-------------------------|
|-5/7--7-7-7-7-7-7-7-7-7-7-|        |-5-5-5-5-5-5-8-8-8-8-8-8-|
|-3/5--5-5-5-5-5-5-5-5-5-5-|        |-3-3-3-3-3-3-6-6-6-6-6-6-|
|--------------------------|        |-------------------------|

|-------------------------------------------|
|-------------------------------------------|
|-------------------------------------------|
|---------------------------5/7--7---5/7--7-|2x
|---------------------------3/5--5---3/5--5-|
|-0-0-0-1-1-1-4-4-4-3-3-3----------0--------|

|------------------------------------------|
|------------------------------------------|2x
|------------------------------------------|
|-0-0-0-1-1-1-4-4-4-3-3-3--5/7--7---5/7--7-|
|--------------------------3/5--5---3/5--5-|
|---------------------------------0--------|

|---------------------|
|---------------------|8 x
|---------------------|
|-5/7--7---5/7--7-----|
|-3/5--5---3/5--5-----|
|--------0--------0---|

last verse
|---------------------------------------------------------|
|---------------------------------------------------------|
|---------------------------------------------------------|
|---5/7---5/7---5/7---5/7--5-5---5/7---5/7---5/7---10--7--|
|---3/5---3/5---3/5---3/5--3-3---3/5---3/5---3/5----8--5--|
|-0-----0-----0-----0----------0-----0-----0-----0--------|

outro is pretty much the same as the very start
rate it. comment it. 
Добавлено: 09.03.2012
Другие материалы по этой песне:

Страница создана 09.03.2012
http://primanota.ru/sword/winters-wolves-chords.htm
Привет, Гость.
Предлагаем пройти революционный курс по гитаре.
Подарок от PrimaNota.Ru, забирай!