PrimaNota.ru - самый крупный в мире бесплатный архив песенных текстов, аккордов, табулатур и нот


Sword - The Warp Riders - таба, видео

Регистрация Запомнить меня
Войти через:  Facebook Google Twitter Vk Yandex Mail.ru

Sword - The Warp Riders - таба, видео

Печатать
Просмотров: 138
Уроки эстрадного вокала в Санкт-Петербурге
Warp Riders - The Sword
Tabbed by: Duncan Mains
Tuning: C-F-A#-D#-G-C (C Standard)


Intro:
E----------------------------------------------------------|
A----------------------------------------------------------|
D--22--------5---7---22-----5---7-5-5/7--------------------|
G--22----5775-57-7-5-22-5775-57-7-5-3/5--------------------|
B--00------------5-5-00---------5-3-3/5--------------------|
E------------------3---------------------------------------|

Riff I
E|----------------------------------------------|
A|----------------------------------------------|
D|-22---------5------22---------7-10------------|
G|-22-----3---5-5----22-----3---7-10------------|
B|-00-3553-35-3-5-X3-00-3553-35-5-8-------------|
E|--------------3-------------------------------|

Riff II
E|-------------------------------------------------------|
A|------------------------------------*------------------|
D|-7-----------77------7-------*----*7-7-7/10------------|
G|-7-99------9-77------7-99----9-99-97-7-7/10-99---------|
B|-5-99-REST-9-55-REST-5-99----9-99-95-5-5/8--99---------|
E|---77------7-----------77----7-77-7---------77---------|

Solo  -  not totally right. almost all hammer ons up to the bend part, just listen.
E|-----------------------------------------------------|
A|-----------------------------------------------------|
D|-------97~-7h9--------------977h9-9fb-7h9-12fb-14-12-|
G|---5779-------7-7h9-----5779-------------------12-10-|
B|-57-----------------7-57-----------------------------|
E|-----------------------------------------------------|

Solo continued

E----------------------------------------------------------|
A-13-15-13h15p13------------------12108--------------------|
D------------------------7979~-797-----1197-976------------|
G-----------------14-12--------------------9---976-9+------|
B-----------------12-10------------------------------------|
E----------------------------------------------------------|
Добавлено: 03.06.2015
Другие материалы по этой песне:

Страница создана 03.06.2015
http://primanota.ru/sword/warp-riders-chords.htm
Привет, Гость.
Предлагаем пройти революционный курс по гитаре.
Подарок от PrimaNota.Ru, забирай!