PrimaNota.ru - самый крупный в мире бесплатный архив песенных текстов, аккордов, табулатур и нот


Sword - Turn To Dust - таба, видео

Регистрация Запомнить меня
Войти через:  Facebook Google Twitter Vk Yandex Mail.ru

Sword - Turn To Dust - таба, видео

Печатать
Просмотров: 116
Уроки эстрадного вокала в Санкт-Петербурге
-------------------------------------------------------------------------------
                             TURN TO DUST - The Sword
-------------------------------------------------------------------------------
Tabbed by: Rossenrot
GTR 1
0:00-1:10
e|---------------------------------|
B|---5--3--------5~---5--3--3------|
G|-2--2--2--5--2----2--2--2--5--2~-|
D|---------------------------------|
A|---------------------------------|
E|---------------------------------|

GTR 1
1:11-1:35 and 2:45-3:08
e|-------------------------------------|
B|---5--3--------5~---5--3--3----------|
G|-2--2--2--5--2----2--2--2--5-2-2-2s5-|
D|-------------------------------------|
A|-------------------------------------|
E|-------------------------------------|

GTR 2

1:11-1:35, 1:56-2:16, and 2:45-3:06
e|--------------------------------------|
B|--------------------------------------|
G|--------------------------------------|
D|--------------------------------------|
A|-2-2-2-2-0-0-2-2~~2-2-2-2-0-0-5-5~5s7-|
E|--------------------------------------|


************************************
I'll finish the whole song soon, but here's the main theme for now. Corrections are welcome. 
************************************
Добавлено: 09.06.2016
Другие материалы по этой песне:
  • Аккорды и текст

Страница создана 09.06.2016
http://primanota.ru/sword/turn-to-dust-chords.htm
Привет, Гость.
Предлагаем пройти революционный курс по гитаре.
Подарок от PrimaNota.Ru, забирай!