PrimaNota.ru - самый крупный в мире бесплатный архив песенных текстов, аккордов, табулатур и нот


Sword - To Take The Black - таба, видео

Регистрация Запомнить меня
Войти через:  Facebook Google Twitter Vk Yandex Mail.ru

Sword - To Take The Black - таба, видео

Печатать
Просмотров: 182
                         To Take The Black

Tabbed by: Stephen Earnest
Email: stevmen1236@gmail.com

Updated Oct. 3, 2009. Pretty sure this is right. Please rate. Add in the palm 
mutes. I didn't feel like adding them cos I'm lazy.

00:00
|-----------------------------------------------|
|-----------------------------------------------|
|--6--7-6-4-6--7-6-4-6---4--7-6-4-6-7-6---------|
|---------------------------------------7-6-4-2-|
|4---------------------2------------------------|
|-----------------------------------------------|

|-----------------------------------------------|
|-----------------------------------------------|
|--6--7-6-4-6--7-6-4-6---4--7-6-4-6-7-6---------|
|---------------------------------------7-6-4-2-|
|4---------------------2------------------------|
|-----------------------------------------------|

|-------------------------------------------------|
|-------------------------------------------------|
|--6--7-6-4-6--7-6-4-------4--7-6-4-6-7-6---------|
|--------------------6-7-------------------7-6-4-2|
|4-----------------------2------------------------|
|-------------------------------------------------|

|-------------------------------------------------|
|-------------------------------------------------|
|--6--7-6-4-6--7-6-4-------4--7-6-4-6-7-6---------|
|--------------------6-7-------------------7-6-4-2|
|4-----------------------2------------------------|
|-------------------------------------------------|

00:30
|--------------------------------------------------------------------------|
|--------------------------------------------------------------------------|
|--------------------------------------------------------------------------|
|-666666-6\4---------66666-2-4-2---2-------666666-6\4----------------------|
|-444444-4\2---2-----44444-------4---4-2-4-444444-4\2--2-----2------4------|
|------------4---4-2---------------------------------4---4-2-0--2h4-2--2/4-|

|-------------------------------------------------------------------------|
|-------------------------------------------------------------------------|
|-------------------------------------------------------------------------|
|-666666-6\4---------66666-2-4-2---2-----666666-6\4-----------------------|
|-444444-4\2---2-----44444-------4---4-2-444444-4\2---2-----2------4------|
|------------4---4-2--------------------------------4---4-2-0--2h4-2--2/4-|

|--------------------------------------------------------------------------|
|--------------------------------------------------------------------------|
|--------------------------------------------------------------------------|
|--------------------------2-4-2---2---------------------------------------|
|-444444-4-2---2-----44444-------4---4-2-444444-4-2---2-----2------4-------|
|------------4---4-2--------------------------------4---4-2-0--2h4-2---12/-|

00:51
|---------------------------------------------------------------|
|---------------------------------------------------------------|
|---------------------------------------------------------------|
|666666-6/7-4-666666-6/7-4-999999-9/11-4-11111111111111-11/13-4-|
|444444-4/5-2-444444-4/5-2-777777-7/-9-2--9-9-9-9-9-9----9/11-2-|
|---------------------------------------------------------------|

|----------------------------------------------------------------|
|----------------------------------------------------------------|
|----------------------------------------------------------------|
|666666-6/7-4-666666-6/7-4-999999-9/11-4-11111111111111-11/13-4~-|
|444444-4/5-2-444444-4/5-2-777777-7/-9-2--9-9-9-9-9-9----9/11-2~-|
|----------------------------------------------------------------|

01:09
|--------------------------------------------------------------------------|
|----5h7p5--------------5h7p5-------------5h7p5-5------------5h7p5-7b8-----|
|6-6-------6-4-6-7--6-6-------6-11-9--6-6---------4-6-7--6-6------------7-4|
|6-6---------4-6-7--6-6---------11-9--6-6---------4-6-7--6-6------------7-4|
|4-4---------2-4-5--4-4----------9-7--4-4---------2-4-5--4-4------------5-2|
|--------------------------------------------------------------------------|

|--------------------------------------------------------------------------|
|----5h7p5--------------5h7p5-------------5h7p5-5------------5h7p5-7b8-----|
|6-6-------6-4-6-7--6-6-------6-11-9--6-6---------4-6-7--6-6-----------11-4|
|6-6---------4-6-7--6-6---------11-9--6-6---------4-6-7--6-6-----------11-4|
|4-4---------2-4-5--4-4----------9-7--4-4---------2-4-5--4-4------------9-2|
|--------------------------------------------------------------------------|

01:37
|---------------------------------------------------|
|---------------------------------------------------|
|6----4-6----4--------------------------------------|
|6----4-6----4--999999-9/11-4-111111111111-11/13-4--|
|4----2-4----2--777777-7/-9-2--9-9-9-9-9-9--9/11-2--|
|---------------------------------------------------|

|---------------------------------------------------|
|---------------------------------------------------|
|6----4-6----4--------------------------------------|
|6----4-6----4--999999-9/11-4-111111111111-11/13-4--|
|4----2-4----2--777777-7/-9-2--9-9-9-9-9-9--9/11-2--|
|---------------------------------------------------|

01:51
|----------------------------------------------------|
|----------------------------------------------------|
|----------------------------------------------------|
|666666-6/7-4-666666-6/7-4-666666-6/7-4-666666-6/7-4-|
|444444-4/5-2-444444-4/5-2-444444-4/5-2-444444-4/5-2-|
|----------------------------------------------------|

01:58
|---------------------------------------------------------------------|
|---------------------------------------------------------------------|
|6-6-7-6-6-6-7-9-7-6-4-6--7-6-4-6-6-6-7-6-6-6-7-4-7-6-4-6-7-6---------|
|6-6-7-6-6-6-7-9------------------6-6-7-6-6-6-7-4-------------7-6-4-2-|
|4-4-5-4-4-4-5-7------------------4-4-5-4-4-4-5-2---------------------|
|---------------------------------------------------------------------|

|---------------------------------------------------------------------|
|---------------------------------------------------------------------|
|6-6-7-6-6-6-7-9-7-6-4-6--7-6-4-6-6-6-7-6-6-6-7-4-7-6-4-6-7-6---------|
|6-6-7-6-6-6-7-9------------------6-6-7-6-6-6-7-4-------------7-6-4-2-|
|4-4-5-4-4-4-5-7------------------4-4-5-4-4-4-5-2---------------------|
|---------------------------------------------------------------------|

02:12
|--------------------------------------------------------------------------|
|----5h7p5--------------5h7p5-------------5h7p5-5------------5h7p5-7b8-----|
|6-6-------6-4-6-7--6-6-------6-11-9--6-6---------4-6-7--6-6------------7-4|
|6-6---------4-6-7--6-6---------11-9--6-6---------4-6-7--6-6------------7-4|
|4-4---------2-4-5--4-4----------9-7--4-4---------2-4-5--4-4------------5-2|
|--------------------------------------------------------------------------|
   
|--------------------------------------------------------------------------|
|----5h7p5--------------5h7p5-------------5h7p5-5------------5h7p5-7b8-----|
|6-6-------6-4-6-7--6-6-------6-11-9--6-6---------4-6-7--6-6-----------11-4|
|6-6---------4-6-7--6-6---------11-9--6-6---------4-6-7--6-6-----------11-4|
|4-4---------2-4-5--4-4----------9-7--4-4---------2-4-5--4-4------------9-2|
|--------------------------------------------------------------------------|

02:41
|---------------------------------------------------|
|---------------------------------------------------|
|6----4-6----4--------------------------------------|
|6----4-6----4--999999-9/11-4-111111111111-11/13-4--|
|4----2-4----2--777777-7/-9-2--9-9-9-9-9-9--9/11-2--|
|---------------------------------------------------|

|---------------------------------------------------|
|---------------------------------------------------|
|6----4-6----4--------------------------------------|
|6----4-6----4--999999-9/11-4-111111111111-11/13-4--|
|4----2-4----2--777777-7/-9-2--9-9-9-9-9-9--9/11-2--|
|---------------------------------------------------|

02:55
|---------------------------------------------------------------|
|---------------------------------------------------------------|
|---------------------------------------------------------------|
|666666-6/7-4-666666-6/7-4-999999-9/11-4-11111111111111-11/13-4-|
|444444-4/5-2-444444-4/5-2-777777-7/-9-2--9-9-9-9-9-9----9/11-2-|
|---------------------------------------------------------------|

|----------------------------------------------------------------|
|----------------------------------------------------------------|
|----------------------------------------------------------------|
|666666-6/7-4-666666-6/7-4-999999-9/11-4-11111111111111-11/13-4~-|
|444444-4/5-2-444444-4/5-2-777777-7/-9-2--9-9-9-9-9-9----9/11-2~-|
|----------------------------------------------------------------|       

03:12
|--------------------------------------------------------------------------|
|--------------------------------------------------------------------------|
|--------------------------------------------------------------------------|
|6-6-----------------6-6--2-2h4p2---2-----6-6------------------------------|
|4-4-2-2h4p2---2-----4-4----------4---4-2-4-4-2-2h4p2---2-----2------4-----|
|------------4---4-2----------------------------------4---4-2-0--2h4-2--2h4|

|--------------------------------------------------------------------------|
|--------------------------------------------------------------------------|
|--------------------------------------------------------------------------|
|6-6-----------------6-6--2-2h4p2---2-----6-6------------------------------|
|4-4-2-2h4p2---2-----4-4----------4---4-2-4-4-2-2h4p2---2-----2------4-----|
|------------4---4-2----------------------------------4---4-2-0--2h4-2--2h4|

|--------------------------------------------------------------------------|
|--------------------------------------------------------------------------|
|--------------------------------------------------------------------------|
|6-6-----------------6-6--2-2h4p2---2-----6-6------------------------------|
|4-4-2-2h4p2---2-----4-4----------4---4-2-4-4-2-2h4p2---2-----2------4-----|
|------------4---4-2----------------------------------4---4-2-0--2h4-2--2h4|

|--------------------------------------------------------------------------|
|--------------------------------------------------------------------------|
|-------------------------------9-9h11p9----9------------------------------|
|11-11-9-9h11p9----9------11-11----------11---11-9-11-11-9-9h11p9----9-----|
|---------------11---11-9-----------------------------------------11---11-9|
|--------------------------------------------------------------------------|

|------------------|
|------------------|
|------------------|
|-9-------11-------|
|-7--9h11--9--9h11-|
|------------------|

03:40
|----------------------------------------------------------------|
|----------------------------------------------------------------|
|----------------------------------------------------------------|
|6-6-7-6-6-6-7-4-6-6-7-6-6-6-7-9-6-6-7-6-6-6-7-4-6-6-7-6-6-6-7-9-|
|4-4-5-4-4-4-5-2-4-4-5-4-4-4-5-7-4-4-5-4-4-4-5-2-4-4-5-4-4-4-5-7-|
|----------------------------------------------------------------|

|----------------------------------------------------------------|
|----------------------------------------------------------------|
|----------------------------------------------------------------|
|6-6-7-6-6-6-7-4-6-6-7-6-6-6-7-9-6-6-7-6-6-6-7-4-6-6-7-6-6-6-7-9-|
|4-4-5-4-4-4-5-2-4-4-5-4-4-4-5-7-4-4-5-4-4-4-5-2-4-4-5-4-4-4-5-7-|
|----------------------------------------------------------------|

This lead is played over the riff above.
|----------------------------------------------|
|----------------------------------------------|
|-6---------7-----------6------------10--------|
|----------------------------------------------|
|----------------------------------------------|
|----------------------------------------------|

03:53
|-----------------------------------------------|
|-----------------------------------------------|
|--6--7-6-4-6--7-6-4-6---4--7-6-4-6-7-6---------|
|---------------------------------------7-6-4-2-|
|4---------------------2------------------------|
|-----------------------------------------------|

|-----------------------------------------------|
|-----------------------------------------------|
|--6--7-6-4-6--7-6-4-6---4--7-6-4-6-7-6---------|
|---------------------------------------7-6-4-2-|
|4---------------------2------------------------|
|-----------------------------------------------|

|-------------------------------------------------|
|-------------------------------------------------|
|--6--7-6-4-6--7-6-4-------4--7-6-4-6-7-6---------|
|--------------------6-7-------------------7-6-4-2|
|4-----------------------2------------------------|
|-------------------------------------------------|

|-------------------------------------------------|
|-------------------------------------------------|
|--6--7-6-4-6--7-6-4-------4--7-6-4-6-7-6---------|
|--------------------6-7-------------------7-6-4-2|
|4-----------------------2------------------------|
|-------------------------------------------------|

Bass break then:

04:26
|---------------------------------------------------------------|
|---------------------------------------------------------------|
|---------------------------------------------------------------|
|666666-6/7-4-666666-6/7-4-999999-9/11-4-11111111111111-11/13-4-|
|444444-4/5-2-444444-4/5-2-777777-7/-9-2--9-9-9-9-9-9----9/11-2-|
|---------------------------------------------------------------|

04:33
|------|
|------|
|------|
|-11\--|
|-11\--|
|--9\--|

And that's it. email me for suggestions or other songs at steveman1236@gmail.com.
Добавлено: 26.07.2012
Другие материалы по этой песне:

Страница создана 18.05.2012
http://primanota.ru/sword/to-take-the-black-chords.htm
Привет, Гость.
Предлагаем пройти революционный курс по гитаре.
Подарок от PrimaNota.Ru, забирай!