PrimaNota.ru - самый крупный в мире бесплатный архив песенных текстов, аккордов, табулатур и нот


Sword - The Frost Giants Daughter - таба, видео

Регистрация Запомнить меня
Войти через:  Facebook Google Twitter Vk Yandex Mail.ru

Sword - The Frost Giants Daughter - таба, видео

Печатать
Просмотров: 82
-----------------------------------------------------------------
The Frost Giant's Daughter - The Sword
-----------------------------------------------------------------
Tabbed by: Jake Miller (millarso)
Email: millarso2.0@gmail.com
Tuning: C Standard

Guitar 1 (right channel & lead)
Guitar 2 (left channel)

Intro
Guitar 1
C |---------------------------|
G |---------------------------|
Eb|---------------------------|
Bb|---------------------------|
F |--------------5-7-8--------|
C |-(bass-lick)--------5-7-8--|

Guitar 2
C |---------------------------|
G |---------------------------|
Eb|---------------------------|
Bb|--------------------7-9-10-|
F |---------------------------|
C |---------------------------|

Section 1
Both Guitars
C |-5-----5-----5-----5-5-5---------------------------------------|
G |-5-----5-----5-----5-5-5---------------------------------------|
Eb|-6-----6-----6-----6-6-6-------------------------------------6-|
Bb|-7-77777-77777-77777-7-7-5-7---5-----------------5--5--------7-|
F |-7-77777-77777-77777-7-7-----8---8-7-5-7-8-------5--5--3-2---7-|
C |-5-55555-55555-55555-5-5-------------------8-7-5-3--3------3-5-|
      ....  ....  ....          .             . . .       . . .
Guitar 1
C |----------------------------------------------------------------------|
G |----------------------------------------------------------------------|
Eb|----------------------------------------------------------------------|
Bb|-5-7---5---------------------------5-7---5----------------------------|
F |-----8---8-7-5-7-8-------TP--TP-TP-----8---8-7-5-7-8-------TP--TP--TP-|
C |-------------------5-7-8-5---8--7--------------------8-7-5-8---10--7--|
        .   . . . . . . . .               .   . . . . . . . . 

Guitar 2
C |---------------------------------------------------------------------|
G |-------------------------TP------------------------------------------|
Eb|-------------------------6---------------------------------TP--TP-TP-|
Bb|-5-7---5-----------------7---------5-7---5-----------------10--12-9--|
F |-----8---8-7-5-7-8---------------------8---8-7-5-7-8-----------------|
C |-------------------5-7-8-----------------------------8-7-5-----------|
        .   . . . . . . . .               .   . . . . . . . .

Guitar 1
C |----------------------------------------------------------------------|
G |----------------------------------------------------------------------|
Eb|----------------------------------------------------------------------|
Bb|-5-7---5-----------------------------5-7---5-----------------5--------|
F |-----8---8-7-5-7-8-------TP-TP-TP-TP-----8---8-7-5-7-8-------5--/7--5-|
C |-------------------5-7-8-5--7--8--7--------------------8-7-5-3--------|
        .   . . . . . . . .                 .   . . . . . . . . 

Guitar 2
C |-------------------------------------------------------------------------------|
G |-------------------------------------------------------------------------------|
Eb|-7-9---7--------------------TP-TP-TP-TP-7-9----7-------------------------------|
Bb|-----10--10-9-7-9-10--------7--9--10-9------10---10-9-7-9-10---------5---10--9-|
F |---------------------7-9-10----------------------------------10-9-7--5---10--9-|
C |---------------------------------------------------------------------3----8--7-|
         .   . . . .  . . .  .                  .    . . . .  .  . . . 

Section 2 - Solo 1
Guitar 1
C |------------------------------------------------------------------------------------------|
G |-10-10-10-10----10b12r10----------8-----8b10r8p6--------6--6-8-6-5-5-6-5-5-5-5-5-6-5\4/5~-|
Eb|-------------12----------10--7-10----10----------7--5-7---------------------------(trem)--|
Bb|------------------------------------------------------------------------------------------|
F |------------------------------------------------------------------------------------------|
C |------------------------------------------------------------------------------------------|

Guitar 2
C |-------------------------------------------------------------------5----5-------5---5\-|
G |-------------------------------------------------------------------5----5-------5---5\-|
Eb|-6----6-------6---6----7----7-------7---7----9----9-------9---9----6----6-------6---6\-|
Bb|-7----7-------7---7----7----7-------7---7----7----7-------7---7----7----7-------7---7\-|
F |-7-77-7-777-7-7-7-7-77-7-77-7-777-7-7-7-7-77-7-77-7-777-7-7-7-7-77-7-77-7-777-7-7-7-7\-|
C |-5-55-5-555-5-5-5-5-55-5-55-5-555-5-5-5-5-55-5-55-5-555-5-5-5-5-55-5-55-5-555-5-5-5-5\-|
      ..   ... .   .   ..   ..   ... .   .   ..   ..   ... .   .   ..   ..   ... .   .

Guitar 1
C |---------------------------------------------------------------------------|
G |-/13-13-13-13-12-10--10/12-12-12-12\10-10----------------------------------|
Eb|------------------------------------------12--12-12-12-12-10-9-10-9h10p9~--|
Bb|---------------------------------------------------------------------------|
F |---------------------------------------------------------------------------|
C |---------------------------------------------------------------------------|

Guitar 2
C |-------------------------------------------------------------------5----5-------5---5\-|
G |-------------------------------------------------------------------5----5-------5---5\-|
Eb|-6----6-------6---6----7----7-------7---7----9----9-------9---9----6----6-------6---6\-|
Bb|-7----7-------7---7----7----7-------7---7----7----7-------7---7----7----7-------7---7\-|
F |-7-77-7-777-7-7-7-7-77-7-77-7-777-7-7-7-7-77-7-77-7-777-7-7-7-7-77-7-77-7-777-7-7-7-7\-|
C |-5-55-5-555-5-5-5-5-55-5-55-5-555-5-5-5-5-55-5-55-5-555-5-5-5-5-55-5-55-5-555-5-5-5-5\-|
      ..   ... .   .   ..   ..   ... .   .   ..   ..   ... .   .   ..   ..   ... .   .

Section 3
Both Guitars
C |-----------------------------------------------|
G |-----------------------------------------------|
Eb|-6-----6-----6-----6s-9--6-----6-----6-----7-4-|
Bb|-7-----7-----7-----7s10--7-----7-----7-----8s5-|x2
F |-7-----7-----7-----7s10--7-----7-----7-----8s5-|
C |-5-555-5-555-5-555-5s-8--5-555-5-555-5-555-6s3-|
      ...   ...   ...         ...   ...   ...
Guitar 1
C |------------------------------------------------------------------------------|
G |------------------------------------------------------------------------------|
Eb|-6-----6-----6-----6s-9--6-----6-----6-----7-4--6-----6-----6-----6s-9-7---4--|
Bb|-7-----7-----7-----7s10--7-----7-----7-----8s5--7-----7-----7-----7s10-8---5--|
F |-7-----7-----7-----7s10--7-----7-----7-----8s5--7-----7-----7-----7s10-8---5--|
C |-5-555-5-555-5-555-5s-8--5-555-5-555-5-555-6s3--5-555-5-555-5-555-5s-8-6---3--|
      ...   ...   ...         ...   ...   ...        ...   ...   ...     
Guitar 2
C |------------------------------------------------------------------------------|
G |------------------------------------------------------------------------------|
Eb|-6-----------------6s-9--6-----------------7s4--6-----------------6s-9-7---4--|
Bb|-7-----------------7s10--7-----------------8s5--7-----------------7s10-8---5--|
F |-7-----------------7s10--7-----------------8s5--7-----------------7s10-8---5--|
C |-5-----------------5s-8--5-----------------6s3--5-----------------5s-8-6---3--|

Section 4
Both Guitars
C |----------------------------------------|
G |----------------------------------------|
Eb|-4s6-6-6--------7--6-4s6-6-6------5s7s5-|
Bb|-5s7-7-7--5-6-7-8--7-5s7-7-7--5-6-5s7s5-|x2
F |-5s7-7-7--5-6-7-8--7-5s7-7-7--5-6-3s5s3-|
C |-3s5-5-5--3-4-5-6--5-3s5-5-5--3-4-------|
             . . .               . . 

Guitar 1
C |------------------------------------------------------------------------------|
G |---------------------8s101010-----------8s101010------------------------------|
Eb|-4s6-6-6--------7--6-x--x-x-x-----5s7s5-x--x-x-x---------------------------6\-|
Bb|-5s7-7-7--5-6-7-8--7-5s-7-7-7-5-6-5s7s5-5s-7-7-7-------------7-5-5-5-------7\-|
F |-5s7-7-7--5-6-7-8--7----------5-6-3s5s3----------5-7-8-------7-5-5-5-3-2---7\-|
C |-3s5-5-5--3-4-5-6--5----------3-4----------------------5-7-8-5-3-3-3-----3-5\-|
             . . .               . .                                    . . .

Guitar 2
C |----------------------------------------------------------------------------|
G |-5s6-6-6-------------5s6-6-6-----------8s101010-----------------------------|
Eb|-x-x-x-x--------7--6-x-x-x-x-----5s7s5-x--x-x-x--------------------------6\-|
Bb|-2s3-3-3--5-6-7-8--7-2s3-3-3-5-6-5s7s5-5s-7-7-7------------7-5-5-5-------7\-|
F |----------5-6-7-8--7---------5-6-3s5s3---------5-7-8-------7-5-5-5-3-2---7\-|
C |----------3-4-5-6--5---------3-4---------------------5-7-8-5-3-3-3-----3-5\-|
             . . .              . .                                   . . .

Section 5
Both Guitars
C |-------------------------------------------------------------------------|
G |----------2nd-gtr--------------------------------------------------------|
Eb|-(9-999-9-7-5-7-5-4-5-4--)-6-----6-----6-----6s-9--6-----6-----6-----7s4-|
Bb|-(----------------------5)-7-----7-----7-----7s10--7-----7-----7-----8s5-|x2
F |--7-777-7-5-3-5-3-2-3-2----7-----7-----7-----7s10--7-----7-----7-----8s5-|
C |------------------------3--5-555-5-555-5-555-5s-8--5-555-5-555-5-555-6s3-|
                                ...   ...   ...         ...   ...   ...

C |-------------------------------------------------------------------|
G |----------2nd-gtr--------------------------------------------------|
Eb|-(9-999-9-7-5-7-5-4-5-4--)-6-----6-----6-----6s-9--10-9-7-------6\-|
Bb|-(----------------------5)-7-----7-----7-----7s10--10-9-7-------7\-|
F |--7-777-7-5-3-5-3-2-3-2----7-----7-----7-----7s10---8-7-5-3-2---7\-|
C |------------------------3--5-555-5-555-5-555-5s-8-------------3-5\-|
                                ...   ...   ...

Section 6
Both Guitars
C |-----------------------------------------------------------------------------|
G |-----------------------------------------------------------------------------|
Eb|----9--------------6\-----11------------------------9-------------6\-----11--|
Bb|---10--------------7\-----12-----------------------10-------------7\-----12--|
F |---10--------------7\-----12---------------12\---0-10-------------7\-----12--|
C |-8--8---10-10-8-10-5\---8-10---13-13-12-10-12\------8---10-10-8-7-5\---8-10--|
    .      .  . .  .       .       .  .  .  .       .       .  . . .      .

Guitar 1
C |----------------------------------------------------------------------------------|
G |----------------------------------------------------------------------------------|
Eb|----------------------------------------------------------------------------------|
Bb|----------------------------------------------------------------------------------|
F |--------------------------------------------------------------------------------5-|
C |-0-3-6-5---0-3-5-6---0-3-6-5---0-3-5-6---0-3-6-5---0-3-5-6---0-3-6-5---0-3-5-6----|

Guitar 2
C |----------------------------------------------------------------------------------|
G |----------------------------------------------------------------------------------|
Eb|----------------------------------------------------------------------------------|
Bb|-------------------------------------------5-8-7---------------5-8-7------------7-|
F |-----------------------------------------7-----------5-7-8---7-----------5-7-8----|
C |-0-3-6-5---0-3-5-6---0-3-6-5---0-3-5-6-------------0-------------------0----------|

Section 7
C |-------------------------------------------------------|
G |-------------------------TP-TPTP-------------TP--TPTP--|
Eb|-------------------------6---9-8--------------9--11-8--|
Bb|-5-7---5-----------------7--10-9-------------10--12-9--|
F |-----8---8-7-5-7-8-------7--10-9-------------10--12-9--|
C |-------------------5-7-8-5---8-7-(drum-fill)--8--10-7--|

C |------------------------------------------------------------------|
G |-------------------------TP-TPTP------------------------TP--TPTP--|
Eb|-------------------------6---9-8-------------------------9--11-8--|
Bb|-5-7---5-----------------7--10-9-5-7---5----------------10--12-9--|
F |-----8---8-7-5-7-8-------7--10-9-----8---8-7-5-7-8------10--12-9--|
C |-------------------5-7-8-5---8-7-(drum-fill)-------8-7-5-8--10-7--|

Guitar 1
C |---------------------------------------------------------------------------------|
G |---------------------------------------------------------------------------------|
Eb|---------------------------------------------4-----4-5-7-5-4---4-5-0-------------|
Bb|-------5-----------5-7-------5-7-5-------5-7---5-7-----------7-------3-2---------|
F |-5-7-8---8-7-5-7-8-----8-7-8-------8-7-8---------------------------------5-------|
C |----------------------------------------------------------------------------/5-3-|
                                                                      . . .
Guitar 2
C |---------------------------------------------------------------------------------|
G |---------------------------------------------5-----------------------------------|
Eb|---------------------------4-5-7-5-4---4-5-7---5---------------------------------|
Bb|-------5-----------5-7---7-----------7-----------------5-------------------------|
F |-5-7-8---8-7-5-7-8-----8-------------------------5-7-8---8-7-5-7-8---------------|
C |-------------------------------------------------------------------8-7-5-3---5-3-|
                                                                      . . .
Section 8 (Solo 2)
Guitar 1 (clean)
C |-----------------------------------------------------------------|
G |------------------------------------------13-12-10---------------|
Eb|-9--------------10-----------14-12-------------------------------|
Bb|-----------------------------------------------------------------|
F |-----------------------------------------------------------------|
C |-----------------------------------------------------------------|

Guitar 2 (acoustic)
C |-----------------------------------------------------------------|
G |-----------------------------------------------------------------|
Eb|-2---2---2---2---2---2---2---2---4---4---4---4---6---6---6---6---|
Bb|--2---2---2---2---3---3---3---3---5---5---5---5---7---7---7---7--|
F |---0---0---0---0---0---0---0---0---0---0---0---0---0---0---0---0-|
C |-----------------------------------------------------------------|

Guitar 1 (distorted)
C |---------------------------------------------------------------------------------|
G |-8b10---8b10-8b10-8--------------------------------------------------------------|
Eb|----------------------10-9-7--------------------7s9-7-7--10-9-7-10-9-10-10s12~-\-|
Bb|-----------------------------10-7s5s7---10-7-10----------------------------------|
F |---------------------------------------------------------------------------------|
C |---------------------------------------------------------------------------------|

Guitar 2 (distorted)
C |-------------------------------------------------------------------|
G |-------------------------------------------------------------------|
Eb|-2---2---2---2---2---2---2---2---4---4---4---4---6---6---9----9----|
Bb|--2---2---2---2---3---3---3---3---5---5---5---5---7---7---11---11--|
F |---0---0---0---0---0---0---0---0---0---0---0---0---0---0----0----0-|
C |-------------------------------------------------------------------|

Guitar 1 (distorted)
C |-----------------|-1---------------|-3---------------|-5-----------------|
G |-----------------|-1---------------|-3---------------|-5-----------------|
Eb|-----------------|-2---------------|-4---------------|-6-----------------|
Bb|-----------------|-3-(let-ring)----|-5-(mute-fast)---|-7-----------------|
F |-----------------|-3---------------|-5---------------|-7-----------------|
C |-----------------|-1---------------|-3---------------|-5-----------------|

Guitar 2
C |-----------------|-----------------|-----------------|-------------------|
G |-----------------|-----------------|-----------------|-------------------|
Eb|-2---2---2---2---|-2---2---2---2---|-4---4---4---4---|-6---6---9----9----|
Bb|--2---2---2---2--|--3---3---3---3--|--5---5---5---5--|--7---7---11---11--|
F |---0---0---0---0-|---0---0---0---0-|---0---0---0---0-|---0---0----0----0-|
C |-----------------|-----------------|-----------------|-------------------|
        clean            distorted           clean             distorted

Guitar 1
C |------------------------10~--------------------------------------------8-7h8p7-------|
G |---8-10bbb12---8-10bb12----8-10h12p10s8----------------------------5-8--------10p8---|
Eb|-9-----------9--------------------------9---9h10-7---7-9-6h9p6h9p6-----------------9-|
Bb|-------------------------------------------------------------------------------------|
F |-------------------------------------------------------------------------------------|
C |-------------------------------------------------------------------------------------|

Guitar 2
C |-----------------------------------------------------------------------------------------|
G |-----------------------------------------------------------------------------------------|
Eb|-2----2-------2---2----2----2-------2---2----4----4-------4---4----6----6-------6---6----|
Bb|-2----2-------2---2----3----3-------3---3----5----5-------5---5----7----7-------7---7----|
F |-0-00-0-000-0-0-0-0-00-0-00-0-000-0-0-0-0-00-0-00-0-000-0-0-0-0-00-0-00-0-000-0-0-0-0-00-|
C |-----------------------------------------------------------------------------------------|
      ..   ... .   .   ..   ..   ... .   .   ..   ..   ... .   .   ..   ..   ... .   .   ..

Guitar 1
C |-/12-12-12-12-10--8---8s10-10-10-10s-8--8-7---8-8-8-8-7-5h7-7h8p5h7b-|
G |-/13-13-13-13-12-10--10s12-12-12-12s10-10-8---8-8-8-8-6-5h6-5h6p5----|
Eb|---------------------------------------------------------------------|
Bb|---------------------------------------------------------------------|
F |---------------------------------------------------------------------|
C |---------------------------------------------------------------------|
The above is actually 2 tracks. C string is harmony and G string is melody.

Guitar 2
C |-----------------------------------------------------------------------------------------|
G |-----------------------------------------------------------------------------------------|
Eb|-2----2-------2---2----2----2-------2---2----4----4-------4---4----6----6-------6---6----|
Bb|-2----2-------2---2----3----3-------3---3----5----5-------5---5----7----7-------7---7----|
F |-0-00-0-000-0-0-0-0-00-0-00-0-000-0-0-0-0-00-0-00-0-000-0-0-0-0-00-0-00-0-000-0-0-0-0-00-|
C |-----------------------------------------------------------------------------------------|
      ..   ... .   .   ..   ..   ... .   .   ..   ..   ... .   .   ..   ..   ... .   .   ..

Section 9
Both Guitars
C |-----------------------------------------------|
G |-----------------------------------------------|
Eb|-6-----6-----6-----6s-9--6-----6-----6-----7-4-|
Bb|-7-----7-----7-----7s10--7-----7-----7-----8s5-|x2
F |-7-----7-----7-----7s10--7-----7-----7-----8s5-|
C |-5-555-5-555-5-555-5s-8--5-555-5-555-5-555-6s3-|
      ...   ...   ...         ...   ...   ...

Guitar 1 (Two separate tracks play almost the same lead part)
C |--------------10b12r10------15p12-----15p12-----15p12-----15p12-----15p12------|
G |-10---13-10-13--------10-13------15p13-----15p13-----15p13-----15p13-----15p13-|
Eb|-------------------------------------------------------------------------------|
Bb|-------------------------------------------------------------------------------|
F |-------------------------------------------------------------------------------|
C |-------------------------------------------------------------------------------|

C |-15-12-15-17--17-17---------------20h17-22b2422-18----18-----12-----|
G |-----------------20b22--22p20-------------------21b23-21b23--15b18--|
Eb|-----------------------------21p19----------------------------------|
Bb|--------------------------------------------------------------------|
F |--------------------------------------------------------------------|
C |--------------------------------------------------------------------|

Guitar 2
C |------------------------------------------------------------------------------|
G |------------------------------------------------------------------------------|
Eb|-6-----6-----6-----6s-9--6-----6-----6-----7-4--6-----6-----6-----6s-9-7---4--|
Bb|-7-----7-----7-----7s10--7-----7-----7-----8s5--7-----7-----7-----7s10-8---5--|
F |-7-----7-----7-----7s10--7-----7-----7-----8s5--7-----7-----7-----7s10-8---5--|
C |-5-555-5-555-5-555-5s-8--5-555-5-555-5-555-6s3--5-555-5-555-5-555-5s-8-6---3--|
      ...   ...   ...         ...   ...   ...        ...   ...   ...     

Repeat Section 4 (x1)
Repeat Section 5 (x1)

Section 10
Both Guitars
C |-----------------------------------------------|
G |-----------------------------------------------|
Eb|-------6-------6---6s-9--------6-------6---7s4-|
Bb|-7-777-7-777-7-7-7-7s10--7-777-7-777-7-7-7-8s5-|x2
F |-7-777-7-777-7-7-7-7s10--7-777-7-777-7-7-7-8s5-|
C |-5-555-5-555-5-5-5-5s-8--5-555-5-555-5-5-5-6s3-|
    . ...   ... .   .       . ...   ... .   .

C |-----------------------------------------------|
G |-----------------------------------------------|
Eb|-------6-------6---6s-9--------6-------6---7s4-|
Bb|-7-7-7-7-7-7-7-7-7-7s10--7-7-7-7-7-7-7-7-7-8s5-|x2
F |-7-7-7-7-7-7-7-7-7-7s10--7-7-7-7-7-7-7-7-7-8s5-|
C |-5-5-5-5-5-5-5-5-5-5s-8--5-5-5-5-5-5-5-5-5-6s3-|
    . . .   . . .   .       . . .   . . .   .

Guitar 1
C |-------------------------------------------------|
G |-------------------------------------------------|
Eb|-------------------------------------------------|
Bb|-5-7---5-----------------5-7---5-----------------|
F |-----8---8-7-5-7-8-5-7-8-----8---8-7-5-7-8-5-7-8-|
C |-------------------------------------------------|

Guitar 2
C |-----------------------------------------------|
G |-----------------------------------------------|
Eb|-------6-------6---6s-9--------6-------6---7s4-|
Bb|-7-7-7-7-7-7-7-7-7-7s10--7-7-7-7-7-7-7-7-7-8s5-|
F |-7-7-7-7-7-7-7-7-7-7s10--7-7-7-7-7-7-7-7-7-8s5-|
C |-5-5-5-5-5-5-5-5-5-5s-8--5-5-5-5-5-5-5-5-5-6s3-|
    . . .   . . .   .       . . .   . . .   .

Guitar 1
C |------------------------------------------------------------------------------------------|
G |--------5--------------------5-6---8---10--8-------------------8-10--8--------------------|
Eb|----5-7---5--------5-7-7p5-------7-------10--10-9-7-9-10-7-9-10----10--10-9-7-9-10-7-9-10-|
Bb|-7----------7-5--7---------7--------------------------------------------------------------|
F |------------------------------------------------------------------------------------------|
C |------------------------------------------------------------------------------------------|

Guitar 2
C |--------------------------------------------------------------------------------------------|
G |--------------------------------------------------------------------------------------------|
Eb|-------6-------6---6s-9--------6-------6---7s4--------6-------6---6s-9--------6-----7--4--5-|
Bb|-7-7-7-7-7-7-7-7-7-7s10--7-7-7-7-7-7-7-7-7-8s5--7-7-7-7-7-7-7-7-7-7s10--7-7-7-7-7-7-8--5--6-|
F |-7-7-7-7-7-7-7-7-7-7s10--7-7-7-7-7-7-7-7-7-8s5--7-7-7-7-7-7-7-7-7-7s10--7-7-7-7-7-7-8--5--6-|
C |-5-5-5-5-5-5-5-5-5-5s-8--5-5-5-5-5-5-5-5-5-6s3--5-5-5-5-5-5-5-5-5-5s-8--5-5-5-5-5-5-6--3--4-|
    . . .   . . .   .       . . .   . . .   .      . . .   . . .   .       . . .   . .

Outro
Guitar 1
C |-----------------------------------------------|
G |-10-(let-ring)---------------------------------|
Eb|-------------------------------6-------6---7s4-|
Bb|-------------------------7-7-7-7-7-7-7-7-7-8s5-|
F |-------------------------7-7-7-7-7-7-7-7-7-8s5-|
C |-------------------------5-5-5-5-5-5-5-5-5-6s3-|
                            . . .   . . .   .
Guitar 2
C |-----------------------------------------------|
G |-----------------------------------------------|
Eb|-------6-------6---6s-9--------6-------6---7s4-|
Bb|-7-7-7-7-7-7-7-7-7-7s10--7-7-7-7-7-7-7-7-7-8s5-|
F |-7-7-7-7-7-7-7-7-7-7s10--7-7-7-7-7-7-7-7-7-8s5-|
C |-5-5-5-5-5-5-5-5-5-5s-8--5-5-5-5-5-5-5-5-5-6s3-|
    . . .   . . .   .       . . .   . . .   .

First tab for these guys and I have to say, that extra bit of stoner fuzz on everything really
makes this difficult.
I hope it gets you close at least.
Please rate & comment.
Thanks,
millarso
Добавлено: 02.10.2013
Другие материалы по этой песне:
  • Аккорды и текст

Страница создана 02.10.2013
http://primanota.ru/sword/the-frost-giants-daughter-chords.htm
Привет, Гость.
Предлагаем пройти революционный курс по гитаре.
Подарок от PrimaNota.Ru, забирай!