PrimaNota.ru - самый крупный в мире бесплатный архив песенных текстов, аккордов, табулатур и нот


Sword - The Black River - аккорды и текст, таба, видео

Регистрация Запомнить меня
Войти через:  Facebook Google Twitter Vk Yandex Mail.ru

Sword - The Black River - аккорды и текст, таба, видео

Печатать
Просмотров: 178
The Black River
Sword
      Tabbed this out from alot of requests and my own desire to play it. I dont have it
down yet, but this should hold you off for a while.It is riff by riff, so dont rely on
many times I tell you to repeat a riff.Keep in mind this is a rough draft, and may not 
flawless, but you get the idea.

         Tuning- Drop C. Look online for note names.

 Intro
|---------------------------------------------------|
|---------------------------------------------------|
|-------------------------7-7h9p7-5----3-3h5-3-3----|
|----/5h7-7----/5h8-8-------------------------------|
|---------------------------------------------------|
|-----------0----------0----------------------------|

 For the next part, I only have the 2nd guitar part, I will welcome any lead part tabs,
I know is he uses a pitch shifter or octaver.This repeats until vocals come in, but I
know how many times it is played.

|---------------------------------------------------|
|---------------------------------------------------|
|---------------------------------------------------|
|---------------------------------------------------|
|---------------------------------------------------|
|0-0-0-0-0-0-0-0-0-0-0-0-0-0-0-0-0-0-0-0-0-0-0-0-0-0|

 Next...

|-------------------------------------------------------|
|-------------------------------------------------------|
|-------------------------------------------------------|
|-------------------------------------------------------|
|-10---10--10h11--8-----6--5---3-----3---3h5-------1----|
|-10---10--10h11--8-----6--5---3-----3---3h5-------1----|

This last part is a rough guess. Its the last pat of the riff above.
 It is repeated a couple times with the other riff
|---------------------------------------------------|
|---------------------------------------------------|
|---------------------------------------------------|
|----4/5--5-2---------------------------------------|
|----2/3--3-0---------------------------------------|
|---------------------------------------------------|

 Next...
|---------------------------------------------------|
|---------------------------------------------------|
|---------------------------------------------------|
|---------------------------------------------------|
|---------------------------------------------------|
|0000-3-3p0-0000-3-0000-3-0000-3-00000-5-5p3--------|
 Little Interlude power chords...(guess)
|---------------------------------------------------|
|---------------------------------------------------|
|---------------------------------------------------|
|---------------------------------------------------|
|-0--3--2--5--3--2--3-------------------------------|
|-0--3--2--5--3--2--3-------------------------------|

 Next...
|---------------------------------------------------|
|---------------------------------------------------|
|---------------------------------------------------|
|---------------------------------------------------|
|12-12--12-12-12--12-12-12--12-13-10----------------|
|12-12--12-12-12--12-12-12--12-13-10----------------|

 End part of riff. Add to last part.
|---------------------------------------------------|
|---------------------------------------------------|
|---------------------------------------------------|
|---------------------------------------------------|
|---------------------------------------------------|
|0-0-3--0-0-5---------------------------------------|

 For the part where vocals go..."take heart, do not fear..."
After whats written, play 3 note triplets instead of long patterns, timing stays same.
|----------------------------------------------------|
|----------------------------------------------------|
|----------------------------------------------------|
|----------------------------------------------------|
|-------------3-5--------------3-3-5------------3-3-5|
|000000000000-3-5-000000000000-3-3-500000000000-3-3-5|

OOOOOK  thats all I got, Send me a Private Message is you have some part I dont have and
will take it. Thanks. Please C and R. (comment and rate)
Добавлено: 10.09.2013
Другие материалы по этой песне:

Страница создана 22.02.2012
http://primanota.ru/sword/the-black-river-chords.htm
Привет, Гость.
Предлагаем пройти революционный курс по гитаре.
Подарок от PrimaNota.Ru, забирай!