PrimaNota.ru - самый крупный в мире бесплатный архив песенных текстов, аккордов, табулатур и нот


Sword - March Of The Lor - таба, видео

Регистрация Запомнить меня
Войти через:  Facebook Google Twitter Vk Yandex Mail.ru

Sword - March Of The Lor - таба, видео

Печатать
Просмотров: 92
March of the Lor
by
the Sword

Updated Sep. 26, 2009. I know the Sword always plays in C Standard but this song is 
to play in Drop C. So there.

00:08
|-------------------------------------------------------------------------|
|-------------------------------------------------------------------------|
|-------------------------------------------------------------------------|
|-7-7-7-7-7-7-7-7-7-7-7-7-5-5-5-5-5-5-5-5-5-5-5-5-7-7-7-7-7-7-7-7-7-7-7-7-|
|-5-5-5-5-5-5-5-5-5-5-5-5-3-3-3-3-3-3-3-3-3-3-3-3-5-5-5-5-5-5-5-5-5-5-5-5-|
|-------------------------------------------------------------------------|
  * * * * * * * * * * * * * * * * * * * * * * * * * * * * * * * * * * * *

|-------------------------------------------------------------------------|
|-------------------------------------------------------------------------|
|-------------------------------------------------------------------------|
|-5-5-5-5-5-5-5-5-5-5-5-5-7-7-7-7-7-7-7-7-7-7-7-7-5-5-5-5-5-5-5-5-5-5-5-5-|
|-3-3-3-3-3-3-3-3-3-3-3-3-5-5-5-5-5-5-5-5-5-5-5-5-3-3-3-3-3-3-3-3-3-3-3-3-|
|-------------------------------------------------------------------------|
  * * * * * * * * * * * * * * * * * * * * * * * * * * * * * * * * * * * *

|-------------------------------------------|
|-------------------------------------------|
|-------------------------------------------|
|-7-7-7-7-7-7-7-7-7-7-7-7-5-5-5-5-5-5-8-8-8-|
|-5-5-5-5-5-5-5-5-5-5-5-5-3-3-3-3-3-3-6-6-6-|
|-------------------------------------------|
  * * * * * * * * * * * * * * * * * * * * *

00:25
|-------------------------------------------------------------------------|
|-------------------------------------------------------------------------|
|-------------------------------------------------------------------------|
|-------------------------------------------------------------------------|
|-5-3-5-6-5-3---3---------5-3-5-6-5-3---3---------5-3-5-6-5-3---3---------|
|-------------6---6-5-3-5-------------6---6-5-3-5-------------6---6-5-3-5-|

|-------------------------|
|-------------------------|
|-------------------------|
|-------------------------|
|-5-3-5-6-5-3---3---------|
|-------------6---6-5-3-5-|

00:33
|-----------------------------------------------------------------------|
|-----------------------------------------------------------------------|
|-----------------------------------------------------------------------|
|-------7-----8-8---7-------------------------------------7-----8-8---7-|
|-------5-----6-6---5-------3---------666666-999999-------5-----6-6---5-|
|-0-000---0-0-----0---0-0-0---6-5-3-0---------------0-000---0-0-----0---|
    ***   * *     *   * * *   * * *                   ***   * *     *

|--------------------------------------------------------------------------|
|--------------------------------------------------------------------------|
|--------------------------------------------------------------------------|
|-------------------------------------7-----8-8---7------------------------|
|-------3---------666666-999999-------5-----6-6---5-------3---------666666-|
|-0-0-0---6-5-3-0---------------0-000---0-0-----0---0-0-0---6-5-3-0--------|
  * * *   * * *                   ***   * *     *   * * *   * * *

|------------------------------------------------------------|
|------------------------------------------------------------|
|------------------------------------------------------------|
|--------------7-----8-8---7---------------------------------|
|-999999-------5-----6-6---5-----666666-333333---------------|
|--------0-000---0-0-----0---0-0---------------666666-333333-|
           ***   * *     *   * *

00:49
|-----10----10----10----10----10----10---------10----10----10----10----|
|-----13b15-13b15-13b15-13b15-13b15-13b15------13b15-13b15-13b15-13b15-|
|----------------------------------------------------------------------|
|----------------------------------------------------------------------|
|----------------------------------------------------------------------|
|0-0---------------------------------------0-0-------------------------|

|-10----10--------15----15----15----15----15----15---------17----17----|
|-13b15-13b15-----18b20-18b20-18b20-18b20-18b20-18b20------20b22-20b22-|
|----------------------------------------------------------------------|
|----------------------------------------------------------------------|
|----------------------------------------------------------------------|
|-------------0-0-------------------------------------0-0--------------|

|-17----17----17----17----|
|-20b22-20b22-20b22-20b22-|
|-------------------------|
|-------------------------|
|-------------------------|
|-------------------------|

01:04
|--------------------------------------------------------------------------|
|--------------------------------------------------------------------------|
|--------------------------------------------------------------------------|
|----------------5-3----------------------------------5-3------------------|
|-------0-3-6-5-----6-5---5-3----------------0-3-6-5-----6-5--5-4-8--6-6-6-|
|-0--3------------------------6--0-0-0-0--3--------------------------------|
                                 * * *

01:20
|--------------------------------------------------------------------------|
|--------------------------------------------------------------------------|
|-------------------------------------7-7/8/10\8\5-------------------------|
|-7-----7-----7-----7-----7-----7------------------7-----7-----7-----7-----|
|-5-----5-----5-----5-----5-----5-----5-5/6/-8\6\3-5-----5-----5-----5-----|
|---000---000---000---000---000---000----------------000---000---000---000-|
    ***   ***   ***   ***   ***   ***                ***   ***   ***   ***

|----------------------------------------------------------------------|
|----------------------------------------------------------------------|
|----------------------------------------------------------------------|
|-7-----7-----------------7-----7-----7-----7-----7-----7--------------|
|-5-----5-------3---------5-----5-----5-----5-----5-----5-----10p11h10-|
|---000---000-6---6-5-3-0---000---000---000---000---000---000----------|
    ***   *** *   * * *     ***   ***   ***   ***   ***   ***

|---------------------------------------------------------|
|---------------------------------------------------------|
|---------------------------------------------------------|
|---------------7----7------7-----7-----7-----------------|
|-6-8-6-3-5-----5-----5-----5-----5-----5-------3---------|
|-----------000---000---000---000---000---000-6---6-5-3-0-|
            ***   ***   ***   ***   ***   *** *   * * *

01:35
|--------------------------------------------------------------|
|--------------------------------------------------------------|
|-7------5------7------5------7------5------7------7/5---------|
|-7------5------7------5------7------5------7------7/5---------|
|-5------3------5------3------5------3------5------5/3---------|
|---------------------------------------------------------/12\-|

01:49
|-------------------------------------------------------------------------|
|-------------------------------------------------------------------------|
|-------------------------------------------------------------------------|
|-------------------------------------------------------------------------|
|-5-3-5-6-5-3---3---------5-3-5-6-5-3---3---------5-3-5-6-5-3---3---------|
|-------------6---6-5-3-5-------------6---6-5-3-5-------------6---6-5-3-5-|

|-------------------------------------------------------------------------|
|-------------------------------------------------------------------------|
|-------------------------------------------------------------------------|
|-------------------------7-5-7-8-7-5-------------7-5-7-8-7-5-------------|
|-5-3-5-6-5-3---3-----------------------3-----------------------3---------|
|-------------6---6-5-3-5-------------6---6-5-3-5-------------6---6-5-3-5-|

|-------------------------------------------------|
|-------------------------------------------------|
|-7-5-7-8-7-5---5---------7-5-7-8-7-5---5---------|
|-------------6---6-5-3-5-------------6---6-5-3-5-|
|-------------------------------------------------|
|-------------------------------------------------|

02:05
|-------------------------------------------------------------------------|
|-------------------------------------------------------------------------|
|-------------------------------------------------------------------------|
|-------0-------------------0-------3-5-------0-------------------0-------|
|-------0-5-3---3-----------0-5-3---3-5-------0-5-3---3-----------0-5-3---|
|-0-0-0-0-----5---5-3-0-0-0-0-----0-3-5-0-0-0-0-----5---5-3-0-0-0-0-----0-|
  * * *               * * *             * * *               * * *

|-----------------------------------------------------------------------|
|-----------------------------------------------------------------------|
|---------------------------------------------------7/5\7\8/7\5---------|
|-3-5-------0-7-5-7-8-7-5-------0-------3-5-------0-------------------0-|
|-3-5-------0-------------------0-5-3---3-5-------0-5/3\5\6/5/3-------0-|
|-3-5-0-0-0-0-------------0-0-0-0-----0-3-5-0-0-0-0-------------0-0-0-0-|
      * * *               * * *             * * *               * * *

|-----------|
|-----------|
|-----------|
|-------3-5-|
|-5-3---3-5-|
|-----0-3-5-|

02:20
|------------------------------------------------------------------------|
|------------------------------------------------------------------------|
|------------------------------------------------------------------------|
|------------------------------------------------------------------------|
|-5-3-1------------------------------------------------------------------|
|-------5b6r5-0------8b9r8-0------5b6r5-0------8b9r8-0------5b6r5-0------|

|--------------------------------------|
|--------------------------------------|
|--------------------------------------|
|--------------------------------------|
|--------------------------------------|
|-8b9r8-0------5b6r5-0------8b9r8-0----|

02:36
|-------------------------------------------------------------------------|
|-------------------------------------------------------------------------|
|-------------------------------------------------------------------------|
|-------5-5---3-5-6-5--6-5-5---3-5-6-5--3-5-5---3-5-6-5--6-5---3-5-6-5--3-|
|-------5-5---3-5-6-5--4-5-5---3-5-6-5--3-5-5---3-5-6-5--4-5---3-5-6-5--3-|
|-0-1-3-5-5-0-3-5-6-5----5-5-0-3-5-6-5--3-5-5-0-3-5-6-5----5-0-3-5-6-5--3-|

|-------------------------------------------------------------------|
|-------------------------------------------------------------------|
|-------------------------------------------------------------------|
|-5-5---3-5-6-5--6-5-5---3-5-6-5--3-5-5---3-5-6-5--6-5---3-5-6-5--3-|
|-5-5---3-5-6-5--4-5-5---3-5-6-5--3-5-5---3-5-6-5--4-5---3-5-6-5--3-|
|-5-5-0-3-5-6-5----5-5-0-3-5-6-5--3-5-5-0-3-5-6-5----5-0-3-5-6-5--3-|

03:01
|-----------------------------------------------------------------------|
|-----------------------------------------------------------------------|
|----------------777777-------------------------------------------------|
|-0--7--8-8--7----------888888-666666-777777--------7-----8-8---7-------|
|-0--5--6-6--5--------------------------------------5-----6-6---5-------|
|-0-------------------------------------------0-000---0-0-----0---0-0-0-|
                                                ***   * *     *   * * *

|--------------------------------------------------------------------|
|--------------------------------------------------------------------|
|--------------------------------------------------------------------|
|-------------------------------7-----8-8---7------------------------|
|-3---------666666-999999-------5-----6-6---5-------3---------666666-|
|---6-5-3-0---------------0-000---0-0-----0---0-0-0---6-5-3-0--------|
    * * *                   ***   * *     *   * * *   * * *

|----------------------------------------------------------------------|
|----------------------------------------------------------------------|
|----------------------------------------------------------------------|
|--------------7-----8-8---7-------------------------------------7-----|
|-999999-------5-----6-6---5-------3---------666666-999999-------5-----|
|--------0-000---0-0-----0---0-0-0---6-5-3-0---------------0-000---0-0-|
           ***   * *     *   * * *   * * *                   ***   * *

|-----------------------------------------|
|-----------------------------------------|
|-----------------------------------------|
|-8-8---7---------------------------------|
|-6-6---5-----666666-333333---------------|
|-----0---0-0---------------666666-333333-|
      *   * *

03:20
|-----10----10----10----10----10----10--------10----10----10----10----|
|-----13b15-13b15-13b15-13b15-13b15-13b15-----13b15-13b15-13b15-13b15-|
|---------------------------------------------------------------------|
|---------------------------------------------------------------------|
|---------------------------------------------------------------------|
|-0-0-------------------------------------0-0-------------------------|

|-10----10---------15----15----15----15----15----15--------17----17----|
|-13b15-13b15------18b20-18b20-18b20-18b20-18b20-18b20-----20b22-20b22-|
|----------------------------------------------------------------------|
|----------------------------------------------------------------------|
|----------------------------------------------------------------------|
|--------------0-0-------------------------------------0-0-------------|

|-17----17----17----17-----------------|
|-20b22-20b22-20b22-20b22--------------|
|--------------------------------------|
|--------------------------------------|
|--------------------------5-3-1-------|
|--------------------------------5b6r5-|

03:37
|---------------------------------------------------------------------|
|---------------------------------------------------------------------|
|------------------------------------------------------------7-6-10-9-|
|---------------5-3---------------------------------5-3---------------|
|------0-3-6-5------6-5--5-3---------------0-3-6-5------6-5--5-4--8-7-|
|0--3------------------------6-0-0-0-0--3-----------------------------|
                               * * *

03:45
|-------------------------------------------------------------------------|
|-------------------------------------------------------------------------|
|-------------------------------------------------------------------------|
|-7-----7-----7-----7-----7-----7-----7-----7-----7-----7-----7-----7-----|
|-5-----5-----5-----5-----5-----5-----5-----5-----5-----5-----5-----5-----|
|---000---000---000---000---000---000---000---000---000---000---000---000-|
    ***   ***   ***   ***   ***   ***   ***   ***   ***   ***   ***   ***

|----------------------------------------|
|----------------------------------------|
|----------------------------------------|
|-7-----7-----------------0--------------|
|-5-----5-------3---------0--------------|
|---000---000-6---6-5-3-5-0---------/12\-|
    ***   *** *   * * * *

03:54
|-------------------------------------------------------------------------|
|-------------------------------------------------------------------------|
|-------------------------------------------------------------------------|
|-7-7---5-7-8-7------7-7---5-7-8-7--5-7-7---5-7-8-7------7-7---5-7-8-7--5-|
|-5-5---3-5-6-5------5-5---3-5-6-5--3-5-5---3-5-6-5------5-5---3-5-6-5--3-|
|-----0----------0-------0----------------0----------0-------0------------|

04:06
|--------------------------------------------------------------------------|
|--------------------------------------------------------------------------|
|--------------------------------------------------------------------------|
|--------------------------------------------------------------------------|
|--------------------------------------------------------------------------|
|-0-0-8b9r8-0-0-5b6r5-0-0-8b9r8-0-0-11b13r11-0-0-8b9r8-0-0-5b6r5-0-0-8b9r8-|

|--------------------------------------------------------------------------|
|--------------------------------------------------------------------------|
|--------------------------------------------------------------------------|
|--------------------------------------------------------------------------|
|--------------------------------------------------------------------------|
|-0-0-11b13-0-0-8b9r8-0-0-5b6r5-0-0-8b9r8-0-0-11b13r11-0-0-8b9r8-0-0-5b6r5-|

|------------------------|
|------------------------|
|------------------------|
|------------------------|
|------------------------|
|-0-0-8b9r8-0-0-11b13r11-|

04:30
|-------------------------------------------------|
|-------------------------------------------------|
|----7-----------7-----------7----------7---------|
|-0--7--------0--7--------0--7-------0--7---------|
|-0--5--6b8r6-0--5--6b8r6-0--5-6b8r6-0--5-6b8r6---|
|-0-----------0-----------0----------0----------0-|

Some parts are wrong I know. But its too hard to understand what they're playing half 
time.
Добавлено: 16.07.2012
Другие материалы по этой песне:
  • Аккорды и текст

Страница создана 16.07.2012
http://primanota.ru/sword/march-of-the-lor-chords.htm
Привет, Гость.
Предлагаем пройти революционный курс по гитаре.
Подарок от PrimaNota.Ru, забирай!