PrimaNota.ru - самый крупный в мире бесплатный архив песенных текстов, аккордов, табулатур и нот


Sword - Lords - таба, видео

Регистрация Запомнить меня
Войти через:  Facebook Google Twitter Vk Yandex Mail.ru

Sword - Lords - таба, видео

Печатать
Просмотров: 169
-------------------------------------------------------------------------------
                             LORDS – The Sword Intro
-------------------------------------------------------------------------------
Tabbed by: YdudeG
Email:Yankeedude13312@aol.com

Tuning:Standard

Play it 3 times, I'm pretty sure it's correct.
e|-------------------5-----------------------5-----------------------------|
B|---------------6h8---8-6---------------6h8---8-6-------------------------|
G|---7---7---5h7-----------5-7---7---5h7-----------5-----------------------|
D|-----5---5-------------------5---5---------------------------------------|
A|-------------------------------------------------------------------------|
E|-------------------------------------------------------------------------|

e|-------------------------------------------------------------------------|
B|-----------------3h4-3-------------------3h4-3---------------------------|
G|---5---5---0h3h5-------5-3-3---3---0h3h5-------5-3-----------------------|
D|-----5---5-------------------5---5---------------------------------------|
A|-------------------------------------------------------------------------|
E|-------------------------------------------------------------------------|
Добавлено: 30.06.2012
Другие материалы по этой песне:

Страница создана 26.03.2012
http://primanota.ru/sword/lords-chords.htm
Привет, Гость.
Предлагаем пройти революционный курс по гитаре.
Подарок от PrimaNota.Ru, забирай!