PrimaNota.ru - самый крупный в мире бесплатный архив песенных текстов, аккордов, табулатур и нот


Sword - Ghost Eye - таба, видео

Регистрация Запомнить меня
Войти через:  Facebook Google Twitter Vk Yandex Mail.ru

Sword - Ghost Eye - таба, видео

Печатать
Просмотров: 38
-------------------------------------------------------------------------------
                             GHOST EYE - The Sword
-------------------------------------------------------------------------------
Tabbed by: Jo Zeiler
E-mail: jo.zeiler@aon.at

Tuning: Half-Step Down at around 435Hz


INTRO

   Guitar 1 (Kyle Shutt)
e|-------------------------------------------------|------------------------------------------------|
B|-------------------------------------------------|------------------------------------------------|
G|--2---2----------------2-------------2-----------|--2--------------------2------------------------|
D|--2---2----------------2---7--5--7---2-----------|--2---2----------------2------------------------|
A|--0---0-----0--3p0-----0---5--3--5---0-----0--3--|--0---0-----0--3p0-----0---2--3--5--7--------3--|
E|---------3----------3-------------------3--------|---------3----------3------0--1--3--5--3--5-----|
 |                                                 |                                                |
 | Guitar 2 (J.D Cronise)                          |                                                |
e|-------------------------------------------------|------------------------------------------------|
B|-------------------------------------------------|------------------------------------------------|
G|--2------------------------7--5--7---2-----------|--2---------------------------------------------|
D|--2------------------------7--5--7---2-----------|--2------------------------2--3--5--7-----------|
A|--0------------------------5--3--5---0-----0--3--|--0------------------------2--3--5--7--------3--|
E|----------------------------------------3--------|---------------------------0--1--3--5--3--5-----|


   Git 1
e|-------------------------------------------------|------------------------------------------------|
B|-------------------------------------------------|------------------------------------------------|
G|--2---2----------------2-------------2-----------|--2--------------------2------------------------|
D|--2---2----------------2---7--5--7---2-----------|--2---2----------------2------------------------|
A|--0---0-----0--3p0-----0---5--3--5---0-----0--3--|--0---0-----0--3p0-----0---2--3--5--7--------3--|
E|---------3----------3-------------------3--------|---------3----------3------0--1--3--5--3--5-----|
 |                                                 |                                                |
 | Git 2                                           |                                                |
e|-------------------------------------------------|------------------------------------------------|
B|-------------------------------------------------|------------------------------------------------|
G|---------------------------7--5--7---2-----------|------------------------------------------------|
D|---------------------------7--5--7---2-----------|---------------------------2--3--5--7-----------|
A|---------------3p0---------5--3--5---0-----0--3--|---------------3p0---------2--3--5--7--------3--|
E|--5---5--3--5-------3--5----------------3--------|--5---5--3--5-------3--5---0--1--3--5--3--5-----|


   Git 1
e|-------------------------------------------------|------------------------------------------------|
B|-------------------------------------------------|------------------------------------------------|
G|--2---2----------------2-------------------------|--2--2------------------------------------------|
D|--2---2----------------2---7--5--7--s9--------5--|--2--2------------------------------------------|
A|--0---0-----0--3p0-----0---5--3--5--s7--5--7-----|--0--0--3p0-----2--3--5--7--------3-------------|
E|---------3----------3----------------------------|-------------3--0--1--3--5--3--5----------------|
 |                                                 |                                                |
 | Git 2                                           |                                                |
e|-------------------------------------------------|------------------------------------------------|
B|-------------------------------------------------|------------------------------------------------|
G|---------------------------7--5--7--s9--7--9-----|------------------------------------------------|
D|---------------------------7--5--7--s9--7--9--5--|--2--2----------2--3--5--7----------------------|
A|---------------3p0---------5--3--5--s7--5--7-----|--0--0--3p0-----2--3--5--7--------3--5b7b5b7b5--|
E|--5---5--3--5-------3--5-------------------------|-------------3--0--1--3--5--3--5----------------|

VERSE 1

   Git 1
e|--0----0----0----3-------0----0----0----1--------|--0----0----0----3-------0----0----0----0-------|
B|---1----1----1----1-------1----1----1----1-------|---1----1----1----1-------1----1----1----1------|
G|----2----2----2----2-------2----2----2----2------|----0----0----0----0-------2----2----2----2-----|
D|-------------------------------------------------|------------------------------------------------|
A|-------------------------------------------------|------------------------------------------------|
E|-------------------------------------------------|------------------------------------------------|
 |                                                 |                                                |
 | Git 2                                           |                                                |
e|-------------------------------------------------|------------------------------------------------|
B|-------------------------------------------------|------------------------------------------------|
G|-------------------------------------------------|------------------------------------------------|
D|-------------------------------------------------|------------------------------------------------|
A|-------------------------------------------------|------------------------------------------------|
E|-------------------------------------------------|------------------------------------------------|


   Git 1
e|--0----0----0----3-------0----0----0----1--------|--0----0----0----3-------0----0----0----0-------|
B|---1----1----1----1-------1----1----1----1-------|---1----1----1----1-------1----1----1----1------|
G|----2----2----2----2-------2----2----2----2------|----0----0----0----0-------2----2----2----2-----|
D|-------------------------------------------------|------------------------------------------------|
A|-------------------------------------------------|------------------------------------------------|
E|-------------------------------------------------|------------------------------------------------|
 |                                                 |                                                |
 | Git 2                                           |                                                |
e|-------------------------------------------------|------------------------------------------------|
B|-------------------------------------------------|------------------------------------------------|
G|-------------------------7-s-9-------------------|--12---------------------14---------------------|
D|--5-s-7------------------------------------------|------------------------------------------------|
A|-------------------------5-s-7-------------------|--10---------------------12---------------------|
E|--3-s-5------------------------------------------|------------------------------------------------|


   Git 1
e|--0----0----0----3-------0----0----0----1--------|--0----0----0----3-------0----0----0----0-------|
B|---1----1----1----1-------1----1----1----1-------|---1----1----1----1-------1----1----1----1------|
G|----2----2----2----2-------2----2----2----2------|----0----0----0----0-------2----2----2----2-----|
D|-------------------------------------------------|------------------------------------------------|
A|-------------------------------------------------|------------------------------------------------|
E|-------------------------------------------------|------------------------------------------------|
 |                                                 |                                                |
 | Git 2                                           |                                                |
e|-------------------------------------------------|------------------------------------------------|
B|-------------------------------------------------|------------------------------------------------|
G|-------------------------7-s-9-------------------|--12---------------------14---------------------|
D|--5-s-7------------------------------------------|------------------------------------------------|
A|-------------------------5-s-7-------------------|--10---------------------12---------------------|
E|--3-s-5------------------------------------------|------------------------------------------------|

PRE-CHORUS

   Git 1
e|-------------------------------------------------|------------------------------------------------|
B|-------------------------------------------------|------------------------------------------------|
G|-------------------------------------------------|------------------------------------------------|
D|---7----------7--9--7-----5----------5--7--5-----|--4--------------4--5----4----------------------|
A|---5---5-5-5--5--7--5-----3---3-3-3--3--5--3-----|--2--------------2--3----2----------------------|
E|-------------------------------------------------|------------------------------------3-----------|
 |       x x x                  x x x              |                                                |
 | Git 2                                           |                                                |
e|-------------------------------------------------|------------------------------------------------|
B|-------------------------------------------------|------------------------------------------------|
G|-------------------------------------------------|------------------------------------------------|
D|-------------------------------------------------|--9----------------------9----------------------|
A|--12-----------12-14-12---10---------10-12-10----|--9----------------------9-----s----5-----------|
E|--10--10-10-10-10-12-10---8---8-8-8--8--10-8-----|--7----------------------7-----s----3-----------|
        x  x  x                 x x x 

CHORUS                                                             

   Git 1
e|-------------------------------------------------|
B|-------------------------------------------------|
G|--2----------------------5----------7------------|
D|--2----------------------5----------7------------|
A|--0----------------------3----------5------------|
E|-------------------------------------------------|
 |                                                 |                                               
 | Git 2                                           |     2x                                              
e|-------------------------------------------------|
B|-------------------------------------------------|
G|-------------------------------------------------|
D|--7----------------------10---------12-----------|
A|--7----------------------10---------12-----------|
E|--5----------------------8----------10-----------|

   Git 1
e|-------------------------------------------------|------------------------------------------------|
B|-------------------------------------------------|------------------------------------------------|
G|--2----------------------5----------7------------|--9---------------------------------------------|
D|--2----------------------5----------7------------|--9----------------------9--12--7----9----------|
A|--0----------------------3----------5------------|--7--------------7-7-7---7--10--5----7----------|
E|-------------------------------------------------|-----------------0-0-0--------------------------|
 |                                                 |                 x x x                          |
 | Git 2                                           |                                                |
e|-------------------------------------------------|------------------------------------------------|
B|-------------------------------------------------|------------------------------------------------|
G|-------------------------------------------------|------------------------------------------------|
D|--7----------------------10---------12-----------|--14----------------------14-17-12---14---------|
A|--7----------------------10---------12-----------|--14------------14-14-14--14-17-12---14---------|
E|--5----------------------8----------10-----------|--12------------12-12-12--12-15-10---12---------|
                                                                    x  x  x
INTERLUDE

   Git 1
e|-------------------------------------------------|------------------------------------------------|
B|-------------------------------------------------|------------------------------------------------|
G|--2---2----------------2-------------2-----------|--2--------------------2------------------------|
D|--2---2----------------2---7--5--7---2-----------|--2---2----------------2------------------------|
A|--0---0-----0--3p0-----0---5--3--5---0-----0--3--|--0---0-----0--3p0-----0---2--3--5--7--------3--|
E|---------3----------3-------------------3--------|---------3----------3------0--1--3--5--3--5-----|
 |                                                 |                                                |
 | Git 2                                           |                                                |
e|-------------------------------------------------|------------------------------------------------|
B|-------------------------------------------------|------------------------------------------------|
G|---------------------------7--5--7---2-----------|------------------------------------------------|
D|---------------------------7--5--7---2-----------|---------------------------2--3--5--7-----------|
A|---------------3p0---------5--3--5---0-----0--3--|---------------3p0---------2--3--5--7--------3--|
E|--5---5--3--5-------3--5----------------3--------|--5---5--3--5-------3--5---0--1--3--5--3--5-----|


   Git 1
e|-------------------------------------------------|------------------------------------------------|
B|-------------------------------------------------|------------------------------------------------|
G|--2---2----------------2-------------------------|--2--2------------------------------------------|
D|--2---2----------------2---7--5--7--s9--------5--|--2--2------------------------------------------|
A|--0---0-----0--3p0-----0---5--3--5--s7--5--7-----|--0--0--3p0-----2--3--5--7--------3-------------|
E|---------3----------3----------------------------|-------------3--0--1--3--5--3--5----------------|
 |                                                 |                                                |
 | Git 2                                           |                                                |
e|-------------------------------------------------|------------------------------------------------|
B|-------------------------------------------------|------------------------------------------------|
G|---------------------------7--5--7--s9--7--9-----|------------------------------------------------|
D|---------------------------7--5--7--s9--7--9--5--|--2--2----------2--3--5--7----------------------|
A|---------------3p0---------5--3--5--s7--5--7-----|--0--0--3p0-----2--3--5--7--------3--5b7b5b7b5--|
E|--5---5--3--5-------3--5-------------------------|-------------3--0--1--3--5--3--5----------------|

VERSE 2

   Git 1
e|--0----0----0----3-------0----0----0----1--------|--0----0----0----3-------0----0----0----0-------|
B|---1----1----1----1-------1----1----1----1-------|---1----1----1----1-------1----1----1----1------|
G|----2----2----2----2-------2----2----2----2------|----0----0----0----0-------2----2----2----2-----|
D|-------------------------------------------------|------------------------------------------------|
A|-------------------------------------------------|------------------------------------------------|
E|-------------------------------------------------|------------------------------------------------|
 |                                                 |                                                |
 | Git 2                                           |                                                |
e|-------------------------------------------------|------------------------------------------------|
B|-------------------------------------------------|------------------------------------------------|
G|-------------------------7-s-9-------------------|--12---------------------14---------------------|
D|--5-s-7------------------------------------------|------------------------------------------------|
A|-------------------------5-s-7-------------------|--10---------------------12---------------------|
E|--3-s-5------------------------------------------|------------------------------------------------|


   Git 1
e|-12---12---12---15------12---12---12---13--------|-12---12---12---15------12---12---12---12-------|
B|---13---13---13---13------13---13---13---13------|---13---13---13---13------13---13---13---13-----|
G|-----14---14---14---14------14---14---14---14----|-----14---14---14---14------14---14---14---14---|
D|-------------------------------------------------|------------------------------------------------|
A|-------------------------------------------------|------------------------------------------------|
E|-------------------------------------------------|------------------------------------------------|
 |                                                 |                                                |
 | Git 2                                           |                                                |
e|-------------------------------------------------|------------------------------------------------|
B|-------------------------------------------------|------------------------------------------------|
G|-------------------------7-s-9-------------------|--12---------------------14---------------------|
D|--5-s-7------------------------------------------|------------------------------------------------|
A|-------------------------5-s-7-------------------|--10---------------------12---------------------|
E|--3-s-5------------------------------------------|------------------------------------------------|

PRE-CHORUS

   Git 1
e|-------------------------------------------------|------------------------------------------------|
B|-------------------------------------------------|------------------------------------------------|
G|-------------------------------------------------|------------------------------------------------|
D|---7----------7--9--7-----5----------5--7--5-----|--4--------------4--5----4----------------------|
A|---5---5-5-5--5--7--5-----3---3-3-3--3--5--3-----|--2--------------2--3----2----------------------|
E|-------------------------------------------------|------------------------------------3-----------|
 |       x x x                  x x x              |                                                |
 | Git 2                                           |                                                |
e|-------------------------------------------------|------------------------------------------------|
B|-------------------------------------------------|------------------------------------------------|
G|-------------------------------------------------|------------------------------------------------|
D|-------------------------------------------------|--9----------------------9----------------------|
A|--12-----------12-14-12---10---------10-12-10----|--9----------------------9-----s----5-----------|
E|--10--10-10-10-10-12-10---8---8-8-8--8--10-8-----|--7----------------------7-----s----3-----------|
        x  x  x                 x x x 

CHORUS                                                             

   Git 1
e|-------------------------------------------------|
B|-------------------------------------------------|
G|--2----------------------5----------7------------|
D|--2----------------------5----------7------------|
A|--0----------------------3----------5------------|
E|-------------------------------------------------|
 |                                                 |                                               
 | Git 2                                           |     6x                                              
e|-------------------------------------------------|
B|-------------------------------------------------|
G|-------------------------------------------------|
D|--7----------------------10---------12-----------|
A|--7----------------------10---------12-----------|
E|--5----------------------8----------10-----------|

   Git 1
e|-------------------------------------------------|------------------------------------------------|
B|-------------------------------------------------|------------------------------------------------|
G|--2----------------------5----------7------------|--9---------------------------------------------|
D|--2----------------------5----------7------------|--9----------------------9--12--7----9----------|
A|--0----------------------3----------5------------|--7--------------7-7-7---7--10--5----7----------|
E|-------------------------------------------------|-----------------0-0-0--------------------------|
 |                                                 |                 x x x                          |
 | Git 2                                           |                                                |
e|-------------------------------------------------|------------------------------------------------|
B|-------------------------------------------------|------------------------------------------------|
G|-------------------------------------------------|------------------------------------------------|
D|--7----------------------10---------12-----------|--14----------------------14-17-12---14---------|
A|--7----------------------10---------12-----------|--14------------14-14-14--14-17-12---14---------|
E|--5----------------------8----------10-----------|--12------------12-12-12--12-15-10---12---------|
                                                                    x  x  x
INTERLUDE

   Git 1
e|-------------------------------------------------|------------------------------------------------|
B|-------------------------------------------------|------------------------------------------------|
G|--2---2----------------2-------------2-----------|--2--------------------2------------------------|
D|--2---2----------------2---7--5--7---2-----------|--2---2----------------2------------------------|
A|--0---0-----0--3p0-----0---5--3--5---0-----0--3--|--0---0-----0--3p0-----0---2--3--5--7--------3--|
E|---------3----------3-------------------3--------|---------3----------3------0--1--3--5--3--5-----|
 |                                                 |                                                |
 | Git 2                                           |                                                |
e|-------------------------------------------------|------------------------------------------------|
B|-------------------------------------------------|------------------------------------------------|
G|---------------------------7--5--7---2-----------|------------------------------------------------|
D|---------------------------7--5--7---2-----------|---------------------------2--3--5--7-----------|
A|---------------3-----------5--3--5---0-----0--3--|---------------3p0---------2--3--5--7--------3--|
E|--5---5--3--5----5--3--5----------------3--------|--5---5--3--5-------3--5---0--1--3--5--3--5-----|


   Git 1
e|-------------------------------------------------|------------------------------------|
B|-------------------------------------------------|------------------------------------|
G|--2---2----------------2-------------------------|--2--2------------------------------|
D|--2---2----------------2---7--5--7--s9--------5--|--2--2------------------------------|
A|--0---0-----0--3p0-----0---5--3--5--s7--5--7-----|--0--0--3p0-----2--3--5--7--------3-|
E|---------3----------3----------------------------|-------------3--0--1--3--5--3--5----|
 |                                                 |                                    |
 | Git 2                                           |                                    | 
e|-------------------------------------------------|------------------------------------|
B|-------------------------------------------------|------------------------------------|
G|---------------------------7--5--7--s9--7--9-----|--2--2------------------------------|
D|---------------------------7--5--7--s9--7--9--5--|--2--2----------2--3--5--7----------|
A|---------------3p0---------5--3--5--s7--5--7-----|--0--0--3p0-----2--3--5--7--------3-|
E|--5---5--3--5-------3--5-------------------------|-------------3--0--1--3--5--3--5----|


OUTRO                                               END

   Git 1
e|----------------------------|                    |------------------------------------|
B|----------------------------|                    |------------------------------------|
G|--2------------2------------|                    |--2---------------------------------|
D|--2------------2------------|                    |--2---------------------------------|
A|--0-----0--2---0-----0--3---|                    |--0---------------------------------|
E|-----3------------3---------|                    |------------------------------------|
 |                            |                    |                                    |
 | Git 2                      |  8x                |                                    | 
e|----------------------------|                    |------------------------------------|
B|----------------------------|                    |------------------------------------|
G|----------------------------|                    |--2---------------------------------|
D|----------------------------|                    |--2---------------------------------|
A|-----------2------------3---|                    |--0---------------------------------|
E|--5--3--5------5--3--5------|                    |------------------------------------|


************************************

| s   slide
| p   pull-off
| x   Mute note
| b   Bend


************************************

The Tabs miss some overdubs during the Pre-Chorus but I'll figur them out.

Lots of fun :D
Добавлено: 09.06.2016
Вам также может быть интересно:
Другие материалы по этой песне:
  • Аккорды и текст

Страница создана 09.06.2016
http://primanota.ru/sword/ghost-eye-chords.htm
Привет, Гость.
Предлагаем пройти революционный курс по гитаре.
Подарок от PrimaNota.Ru, забирай!