PrimaNota.ru - самый крупный в мире бесплатный архив песенных текстов, аккордов, табулатур и нот


Sword - Fire Lances Of The Anciet Hyperzephryians - таба

Регистрация Запомнить меня
Войти через:  Facebook Google Twitter Vk Yandex Mail.ru

Sword - Fire Lances Of The Anciet Hyperzephryians - таба

Печатать
Просмотров: 96
Уроки эстрадного вокала в Санкт-Петербурге
Fire Lances of the Ancient Hyperzephryians
by
the Sword

Tabbed by Stephen Earnest
Updated 9/07/09. 
Yes, I know I tabbed it in drop C. 

|--------------------------------------------------------------------------|
|--------------------------------------------------------------------------|
|--------------------------------------------------------------------------|
|8-7---5-7-8---7-8-10-----------------8-7---7-8-10---8-10-11---------------|
|6-5---3-5-6---5-6--8-----------------6-5---5-6--8---6--8--9-------6-9-8-6-|
|----0-------0--------0-13/--1-4-3-1------0--------0---------0-13/---------|
                            (  trp  )                              (  trp  )

|----------------------------------------------------|
|----------------------------------------------------|
|----------------------------------------------------|
|8-7---------5-7-8---------7-8-10--------------------|
|6-5---------3-5-6---------5-6--8--------------------|
|----0-00000-------0-00000--------0-00000--1-4-3-1---|
     * *****       * *****        * ***** (  trp  )

|---------------------------------------------------------|
|---------------------------------------------------------|
|---------------------------------------------------------|
|8-7---------7-8-10---------8-10-11-------------------7---|
|6-5---------5-6--8---------6--8--9----------6-9-8-6--5---|
|----0-00000--------0-00000---------0-00000-----------0---|
     * *****        * *****         * ***** (  trp  )

|-------------------------------------------------------------|
|-------------------------------------------------------------|
|-------------------------------------------------------------|
|7-----7-----7-----7-----8---8-7-----7-----7-----7---------10-|
|5-555-5-555-5-555-5-555-6-5-6-5-555-5-555-5-555-5-555-5-6--8-|
|-------------------------------------------------------------| x4
   ***   ***   ***   ***   *     ***   ***   ***   *** * *

|-------------------------------------------------------------|
|-------------------------------------------------------------|
|-------------------------------------------------------------|
|7-----7-----7-----7-----7---5-7-----7-----7-----7-----7---10-|
|5-555-5-555-5-555-5-555-5-5-3-5-555-5-555-5-555-5-555-5-5--8-|
|-------------------------------------------------------------|
   ***   ***   ***   ***   *     ***   ***   ***   ***   *

|-------------------------------------------------------------|
|-------------------------------------------------------------|
|-------------------------------------------------------------|
|5-----5-----5-----5-----5---8-7-----7-----7-----7-----8---8--|
|3-333-3-333-3-333-3-333-3-3-6-5-555-5-555-5-555-5-555-6-5-6--|
|-------------------------------------------------------------|
   ***   ***   ***   ***   *     ***   ***   ***   ***   *

|-------------------------------------------------------------|
|-------------------------------------------------------------|
|-------------------------------------------------------------|
|7-----7-----7-----7-----7---5-7-----7-----7-----7-----7---10-|
|5-555-5-555-5-555-5-555-5-5-3-5-555-5-555-5-555-5-555-5-5--8-|
|-------------------------------------------------------------|
   ***   ***   ***   ***   *     ***   ***   ***   ***   *

|-------------------------------------------------------------|
|-------------------------------------------------------------|
|-------------------------------------------------------------|
|5-----5-----5-----5-----5---8-7-----7-----7-----7-----8---8--|
|3-333-3-333-3-333-3-333-3-3-6-5-555-5-555-5-555-5-555-6-5-6--|
|-------------------------------------------------------------|
   ***   ***   ***   ***   *     ***   ***   ***   ***   *
 
|--------------------------------------------------------------|
|--------------------------------------------------------------|
|7-------8-------5-------8-7-7---------------------------------|
|7-------8-------5-------8-7-7---------------------------------|
|5-------6-------3-------6-5-5------------------------------6--|
|--0-0-0---0-0-0---0-0-0--------1-0-0-0-1-0-0-0-1-0-0-0-3-5-6--|
   * * *   * * *   * * *                                * *

|--------------------------------------------------------------|
|--------------------------------------------------------------|
|7-------8-------5-------5-8-7---------------------------------|
|7-------8-------5-------5-8-7--1-0-0-0-1-0-0-0-1-0-0-0--------|
|5-------6-------3-------3-6-5------------------------------6--|
|--0-0-0---0-0-0---0-0-0--------------------------------3-5-6--|
   * * *   * * *   * * *                                * *

|--------------------------------------------------------------|
|--------------------------------------------------------------|
|7-------8-------5-------8-7-8---------------------------------|
|7-------8-------5-------8-7-8---------------------------------|
|5-------6-------3-------6-5-6------------------------------6--|
|--0-0-0---0-0-0---0-0-0--------1-0-0-0-1-0-0-0-1-0-0-0-3-5-6--|
   * * *   * * *   * * *        * * * * * * * * * * * * * *

|---------------------------------------------------------------|
|---------------------------------------------------------------|
|7-------8-------5-------10-8-7---------------------------------|
|7-------8-------5-------10-8-7--1-0-0-0-1-0-0-0-1-0-0-0-3-5-6--|
|5-------6-------3--------8-6-5--1-0-0-0-1-0-0-0-1-0-0-0-3-5-6--|
|--0-0-0---0-0-0---0-0-0---------1-0-0-0-1-0-0-0-1-0-0-0-3-5-6--|
   * * *   * * *   * * *                                     

|-------------------------------------|
|-------------------------------------|
|-------------------------------------|
|8-7---5-7-8---7-8-10-----------------|
|6-5---3-5-6---5-6--8-----------------|
|----0-------0--------0-13/--1-4-3-1--|
                            (  trp  )                              

|------------------------------------------------------|
|------------------------------------------------------|
|------------------------------------------------------|
|8-7---------7-8-10---------8-10-11----------6---6---6-|
|6-5---------5-6--8---------6--8--9----------6---6---6-|
|----0-00000--------0-00000---------0-00000--6-0-6-0-6-|
     * *****        * *****         * *****    *   *

|----------------------------------------------|
|----------------------------------------------|
|7-----5--7----10--9------12--10---------------|
|7-----5--7----10-10------12--10-----15-14-15--|
|5-----3--5-----8--7------10---8-----13-12-13--|
|0---------------------------------------------|


|-------------------------------------------------------------|
|-------------------------------------------------------------|
|-------------------------------------------------------------|
|7-----7-----7-----7-----7---5-7-----7-----7-----7-----7---10-|
|5-555-5-555-5-555-5-555-5-5-3-5-555-5-555-5-555-5-555-5-5--8-|
|-------------------------------------------------------------|
   ***   ***   ***   ***   *     ***   ***   ***   ***   *

|-------------------------------------------------------------|
|-------------------------------------------------------------|
|-------------------------------------------------------------|
|5-----5-----5-----5-----5---8-7-----7-----7-----7-----8---8--|
|3-333-3-333-3-333-3-333-3-3-6-5-555-5-555-5-555-5-555-6-5-6--|
|-------------------------------------------------------------|
   ***   ***   ***   ***   *     ***   ***   ***   ***   *

|--------------------------------------------------------------|
|--------------------------------------------------------------|
|7-------8-------5-------8-7-7---------------------------------|
|7-------8-------5-------8-7-7---------------------------------|
|5-------6-------3-------6-5-5------------------------------6--|
|--0-0-0---0-0-0---0-0-0--------1-0-0-0-1-0-0-0-1-0-0-0-3-5-6--|
   * * *   * * *   * * *                                * *

|--------------------------------------------------------------|
|--------------------------------------------------------------|
|7-------8-------5-------5-8-7---------------------------------|
|7-------8-------5-------5-8-7--1-0-0-0-1-0-0-0-1-0-0-0--------|
|5-------6-------3-------3-6-5------------------------------6--|
|--0-0-0---0-0-0---0-0-0--------------------------------3-5-6--|
   * * *   * * *   * * *                                * *

|--------------------------------------------------------------|
|--------------------------------------------------------------|
|7-------8-------5-------8-7-8---------------------------------|
|7-------8-------5-------8-7-8---------------------------------|
|5-------6-------3-------6-5-6------------------------------6--|
|--0-0-0---0-0-0---0-0-0--------1-0-0-0-1-0-0-0-1-0-0-0-3-5-6--|
   * * *   * * *   * * *        * * * * * * * * * * * * * *

|---------------------------------------------------------------|
|---------------------------------------------------------------|
|7-------8-------5-------10-8-7---------------------------------|
|7-------8-------5-------10-8-7--1-0-0-0-1-0-0-0-1-0-0-0-----6--|
|5-------6-------3--------8-6-5--1-0-0-0-1-0-0-0-1-0-0-0-----6--|
|--0-0-0---0-0-0---0-0-0---------1-0-0-0-1-0-0-0-1-0-0-0-3-5-6--|
   * * *   * * *   * * *                                 * * 

|-------------------------------|
|-------------------------------|
|-------------------------------|
|-------------------------------|
|5---3-5-6-5-3-5----------------|
|----------------6--3-5-6-5-3-5-| (Repeat this riff throughout the solo)
     * *            * *   

|---------------------------------------|
|---------------------------------------|
|---------------------------------------|
|8-7---5-7-8---7-8-10---------6---6---6-|
|6-5---3-5-6---5-6--8---------6---6---6-|
|----0-------0--------0--13/--6-0-6-0-6-|
                                *   *                        
                                     
|---------------------------------------|
|---------------------------------------|
|---------------------------------------|
|8-7---5-7-8---7-8-10---------6---6---6-|
|6-5---3-5-6---5-6--8---------6---6---6-|
|----0-------0--------0--13/--6-0-6-0-6-|
                                *   *                

|------------------------------------------------------|
|------------------------------------------------------|
|------------------------------------------------------|
|8-7---------7-8-10---------8-10-11----------6---6---6-|
|6-5---------5-6--8---------6--8--9----------6---6---6-|
|----0-00000--------0-00000---------0-00000--6-0-6-0-6-|
     * *****        * *****         * *****    *   *

|--------------------------------------------------------|
|--------------------------------------------------------|
|--------------------------------------------------------|
|8-7---------7-8-10---------8-10-11----------------------|
|6-5---------5-6--8---------6--8--9-----------6-9-8-6--0-|
|----0-00000--------0-00000---------0-00000------------0-|
     * *****        * *****         * *****  (  trp  )  

And thats it. Email me for the solo.  

Trp  =  tremolo pick
*    =  palm mute
/    =  slide down
Добавлено: 24.02.2012
Другие материалы по этой песне:
  • Аккорды и текст

Страница создана 24.02.2012
http://primanota.ru/sword/fire-lances-of-the-anciet-hyperzephryians-chords.htm
Привет, Гость.
Предлагаем пройти революционный курс по гитаре.
Подарок от PrimaNota.Ru, забирай!