PrimaNota.ru - самый крупный в мире бесплатный архив песенных текстов, аккордов, табулатур и нот


Sword - Fire Lances Of The Ancient Hyperzephyrians - бас-таба, видео

Регистрация Запомнить меня
Войти через:  Facebook Google Twitter Vk Yandex Mail.ru

Sword - Fire Lances Of The Ancient Hyperzephyrians - бас-таба, видео

Печатать
Просмотров: 73
Уроки эстрадного вокала в Санкт-Петербурге
I learned this song about 3 years ago, and I could have sworn that I got the tab off 
this site.
When I went to see what to play during the solo part, I found that there was no bass tab 
on here.
So after about 5 minutes of listening to the song I figured it out, and decided to make 
my own bass tab, so here it is.
I hope you enjoy.


F|--------------------------------------------------------------------------|
C|--------------------------------------------------------------------------|
G|6-5---3-5-6---5-6--8-----------------6-5---5-6--8---6--8--9-------6-9-8-6-|
C|----0-------0--------0-13/--1-4-3-1------0--------0---------0-13/---------|

F|----------------------------------------------------|
C|----------------------------------------------------|
G|6-5---------3-5-6---------5-6--8--------------------|
C|----0-00000-------0-00000--------0-00000--1-4-3-1---|

F|---------------------------------------------------------|
C|---------------------------------------------------------|
G|6-5---------5-6--8---------6--8--9----------6-9-8-6------|
C|----0-00000--------0-00000---------0-00000-----------0---|

F|-------------------------------------------------------------|
C|-------------------------------------------------------------|
G|-------6-5-6-5---------------------------------6-5-8-5-------|
C|-------------------------------------------------------------| x2

F|-------------------------------------------------------------|
C|-------------------------------------------------------------|
G|5-555-5-555-5-555-5-555-6-5-6-5-555-5-555-5-555-5-555-5-6--8-|
C|-------------------------------------------------------------| x2

F|-------------------------------------------------------------|
C|-------------------------------------------------------------|
G|5-555-5-555-5-555-5-555-5-5-3-5-555-5-555-5-555-5-555-5-5--8-|
C|-------------------------------------------------------------|

F|-------------------------------------------------------------|
C|-------------------------------------------------------------|
G|3-333-3-333-3-333-3-333-3-3-6-5-555-5-555-5-555-5-555-6-5-6--|
C|-------------------------------------------------------------|

F|-------------------------------------------------------------|
C|-------------------------------------------------------------|
G|5-555-5-555-5-555-5-555-5-5-3-5-555-5-555-5-555-5-555-5-5--8-|
C|-------------------------------------------------------------|

F|-------------------------------------------------------------|
C|-------------------------------------------------------------|
G|3-333-3-333-3-333-3-333-3-3-6-5-555-5-555-5-555-5-555-6-5-6--|
C|-------------------------------------------------------------|

F|--------------------------------------------------------------|
C|--------------------------------------------------------------|
G|5-------6-------3-------6-5-5---------------------------------|
C|--0-0-0---0-0-0---0-0-0--------1-0-0-0-1-0-0-0-1-0-0-0-3-5-6--|

F|--------------------------------------------------------------|
C|-------------------------------1-0-0-0-1-0-0-0-1-0-0-0--------|
G|5-------6-------3-------3-6-5---------------------------------|
C|--0-0-0---0-0-0---0-0-0--------------------------------3-5-6--|

F|--------------------------------------------------------------|
C|--------------------------------------------------------------|
G|5-------6-------3-------6-5-6---------------------------------|
C|--0-0-0---0-0-0---0-0-0--------1-0-0-0-1-0-0-0-1-0-0-0-3-5-6--|

F|---------------------------------------------------------------|
C|---------------------------------------------------------------|
G|5-------6-------3--------8-6-5---------------------------------|
C|--0-0-0---0-0-0---0-0-0---------1-0-0-0-1-0-0-0-1-0-0-0-3-5-6--|

F|-------------------------------------|
C|-------------------------------------|
G|6-5---3-5-6---5-6--8-----------------|
C|----0-------0--------0-13/--1-4-3-1--|

F|------------------------------------------------------|
C|------------------------------------------------------|
G|6-5---------5-6--8---------6--8--9--------------------|
C|----0-00000--------0-00000---------0-00000--6-0-6-0-6-|

F|----------------------------------------------|
C|----------------------------------------------|
G|------3--5-----8--7------10---8-----13-12-13--|
C|0---------------------------------------------|

F|-------------------------------------------------------------|
C|-------------------------------------------------------------|
G|5-555-5-555-5-555-5-555-5-5-3-5-555-5-555-5-555-5-555-5-5--8-|
C|-------------------------------------------------------------|

F|-------------------------------------------------------------|
C|-------------------------------------------------------------|
G|3-333-3-333-3-333-3-333-3-3-6-5-555-5-555-5-555-5-555-6-5-6--|
C|-------------------------------------------------------------|

F|--------------------------------------------------------------|
C|--------------------------------------------------------------|
G|5-------6-------3-------6-5-5---------------------------------|
C|--0-0-0---0-0-0---0-0-0--------1-0-0-0-1-0-0-0-1-0-0-0-3-5-6--|

F|--------------------------------------------------------------|
C|-------------------------------1-0-0-0-1-0-0-0-1-0-0-0--------|
G|5-------6-------3-------3-6-5---------------------------------|
C|--0-0-0---0-0-0---0-0-0--------------------------------3-5-6--|

F|--------------------------------------------------------------|
C|--------------------------------------------------------------|
G|5-------6-------3-------6-5-6---------------------------------|
C|--0-0-0---0-0-0---0-0-0--------1-0-0-0-1-0-0-0-1-0-0-0-3-5-6--|

F|---------------------------------------------------------------|
C|---------------------------------------------------------------|
G|5-------6-------3--------8-6-5---------------------------------|
C|--0-0-0---0-0-0---0-0-0---------1-0-0-0-1-0-0-0-1-0-0-0-3-5-6--|

F|-------------------------------|
C|-------------------------------|
G|----3-5-6-5-3-5----------------| x6
C|-0--------------6--3-5-6-5-3-5-|

F|---------------------------------------|
C|---------------------------------------|
G|6-5---3-5-6---5-6--8-------------------|
C|----0-------0--------0--13/--6-0-6-0-6-|

F|---------------------------------------|
C|---------------------------------------|
G|6-5---3-5-6---5-6--8-------------------|
C|----0-------0--------0--13/--6-0-6-0-6-|

F|------------------------------------------------------|
C|------------------------------------------------------|
G|6-5---------5-6--8---------6--8--9--------------------|
C|----0-00000--------0-00000---------0-00000--6-0-6-0-6-|

F|--------------------------------------------------------|
C|--------------------------------------------------------|
G|6-5---------5-6--8---------6--8--9-----------6-9-8-6----|
C|----0-00000--------0-00000---------0-00000------------0-|
Добавлено: 04.10.2013
Другие материалы по этой песне:

Страница создана 04.05.2012
http://primanota.ru/sword/fire-lances-of-the-ancient-hyperzephyrians-chords.htm
Привет, Гость.
Предлагаем пройти революционный курс по гитаре.
Подарок от PrimaNota.Ru, забирай!