PrimaNota.ru - самый крупный в мире бесплатный архив песенных текстов, аккордов, табулатур и нот


Sword - Astreas Dream - таба, видео

Регистрация Запомнить меня
Войти через:  Facebook Google Twitter Vk Yandex Mail.ru

Sword - Astreas Dream - таба, видео

Печатать
Просмотров: 125
Astrea's Dream
Tabbed by: Duncan Mains
Tuning: C-F-A#-D#-G-C (C Standard)

Missing solo and maybe a riff or 2, but what is here seems to be correct!
Maybe I'll try the solo soon.
Enjoy!

* = palm mute
" = tremlo
/ = slide up
h = hammer on

Intro:

e|-----------------------------------------------------------|
B|-----------------------------------------------------------|
G|-------------------------------------3-2-------------------|
D|-------7-5-3-2--x2-----------------3-------------7-5-3-2---|
A|-5-3-0-------------------0-3-5-3-5---------5-3-0-----------|
E|-----------------------------------------------------------|


-------------------------------------------------------------|
-------------------------------------------------------------|
--------------------------3-2------------3-2-----------------|
------7-5-3-2---------7-5--------------3-----------7-5-3-2-x2|
5-3-0-----------5-3-0--------0-3-5-3-5-------5-3-0-----------|
-------------------------------------------------------------|

Last Part:

e|--------------------------------------------|
B|--------------------------------------------|
G|-----------3-2------------------------------|
D|---------3-----0-5--------------------------|
A|-3-5-3-5---------5--------------------------|
E|-----------------3--------------------------|

Riff I

e|----------------------------------------------------|
B|----------------------------------------------------|
G|-----2------2-----5-----2---------2-----5-----2-----|
D|-----2------2-----5-----2---------2-----5-----2-----| RIGHT after this, go to riff II.
A|-5-3-0--5-3-0-5-3-3-5-3-0-----5-3-0-5-3-3-5-3-0-----|
E|-*-*----*-*---*-*---*-*-------*-*---*-*---*-*-------|

Riff II

e|--------------------------------------------------------------------------------------|
B|--------------------------------------------------------------------------------------|
G|-----------------2--------------------2------------------2-----------777-5-----2------|
D|-999-7-555-3-----2----------555-3-----2--999-7-555-3-----2-----999-7-***-------2------|
A|-***---***---5-3-0-x2-333-5-***---5-3-0--***---***---5-3-0-----***---------5-3-0------|
E|-------------*-*------***---------*-*----------------*-*-------------------*-*--------|

Riff III

e|-------------------------------------------------------|
B|-------------------------------------------------------|
G|--------------------------5-4--------------------------|
D|-2/5----2/2---------2/5---5-4--------------------------|
A|-2/5----2/5-***-3h5-2/5-*-3-2--------------------------|
E|-0/3-0"-0/3-035-----0/3-3------------------------------|
Добавлено: 03.06.2015
Другие материалы по этой песне:
  • Аккорды и текст

Страница создана 03.06.2015
http://primanota.ru/sword/astreas-dream-chords.htm
Привет, Гость.
Предлагаем пройти революционный курс по гитаре.
Подарок от PrimaNota.Ru, забирай!