PrimaNota.ru - самый крупный в мире бесплатный архив песенных текстов, аккордов, табулатур и нот


Swoopna Suman - K Saro Ramri Bhako - аккорды и текст, видео

Регистрация Запомнить меня
Войти через:  Facebook Google Twitter Vk Yandex Mail.ru

Swoopna Suman - K Saro Ramri Bhako - аккорды и текст, видео

Печатать
Просмотров: 124
K Saro Ramri Bhako
Swoopna Suman
Intro goes like this without capo

      Pattern 1                                             
                |--3--|                     |--3--|         
      H         E  E  E    Q       H        E  E  E   Q     
E||-----------------------------|--------------------------|
B||-----------------------------|--------------------------|
G||*----------------------------|--------------------------|
D||*--8---------L--L--8h--10----|--5--------L--L--5S--3----|
A||-----------------------------|--------------------------|
E||-----------------------------|--------------------------|


                                             Pattern 2                  
                                                       |--3--|          
  H.           Q       W                     H         E  E  E    Q     
--------------------|--------------------||----------------------------|
--------------------|--------------------||----------------------------|
--------------------|-------------------*||----------------------------|
--1------------3----|--3----------------*||--8---------L--L--8h--10----|
--------------------|--------------------||----------------------------|
--------------------|--------------------||----------------------------|


                                    |---3---|                               
   H.            Q        H         E   E   E    Q        W                 
----------------------|-------------------------------|--------------------|
----------------------|-------------------------------|--------------------|
----------------12----|--10---------L---L--10h--12----|--------------------|
--13------------------|-------------------------------|--13----------------|
----------------------|-------------------------------|--------------------|
----------------------|-------------------------------|--------------------|


  Pattern 3                                                            
  |--------3-------|   |---3---|               |--3--|                 
  E         E      E   E   E   E   H           Q     E   H.            
--------------------------------------------|-------13--11------------|
----------------------11---L--13--11--------|-------------------------|
---------------10g12------------------------|-------------------------|
--------------------------------------------|-------------------------|
--------------------------------------------|-------------------------|
--------------------------------------------|-------------------------|


  |--3-|   |--3-|                                   
  Q    E   Q    E  Q    Q       Q    Q    H         
-----------------------------|---------------------|
-------------------8----8----|-------6----4--------|
-------8--10----8------------|---------------------|
-----------------------------|---------------------|
-----------------------------|---------------------|
-----------------------------|---------------------|


  |--3--|               |--3--|                           
  Q     E   Q     Q     Q     E      H.           E   E   
---------------------------------|-----------------------|
-----------------13-----L----11--|---L-------------------|
-------12--11--------------------|-----------------------|
---------------------------------|----------------9--10--|
---------------------------------|-----------------------|
---------------------------------|-----------------------|


           |--3--|  |--3--|     |--3--|                 
  H        Q     E  Q     E     Q     E  Q    H         
-----------------------------|-------------------------|
-----------------------------|-------------------------|
--8--------L-----------------|-------------------------|
----------------10--8--------|-------------------------|
-------------------------10--|--8----10--8----6--------|
-----------------------------|-------------------------|


   Pattern 4                                                  
   E         E   E   E   E   E   E   E     W                  
----------------------------------------|-------------------||
----------------------------------------|-------------------||
--/8--------10--11--10--11--10--11--10--|--8----------------||
----------------------------------------|-------------------||
----------------------------------------|-------------------||
----------------------------------------|-------------------||




Capo on 3rd Fret, Standard Tuning EADGBE    


C/Em/Am/G
C/Em/Am/G
C/Em/Am/G                 
 
C     Em      Am          F
Saat samundra pari ko tyo saharma

C      Am             F     G
k chha sunau na timro khabara

C     Em      Am          F
seattle sahar ko tyo bagarma

C      Am             F     G
timi sanga hidna lagyo malai rahara

C     Em      Am          F
dui char barsa pani biti sakyo

C      Am             F     G
masanga vetna kahile auchau vana?

C     Em      Am          F
ooth mathi ko tyo kalo kothi timro

C      Am             F     G
najik aai kahile dekhauchau?

F                    G
lajalu aankha dherai pachi dekheko
F                      G
aawaj timro maile kuri baseko

F                      G
kura sunera timro maan ramayeko 

F                    G
bolima timro kina ma harayeko

C  Am      F            G
ae sunana! k saro ramri bhako?*2

C     Em      Am          F
New York ma mero guitar gunjida

tyo bhidma timi pani aaunu hai?

C     Em      Am          F
udasipan le kahile kahi satauda
C      Am             F     G
sunera geet yo ramaunu hai?

C     Em      Am          F
sapana bunne manchhe ma thahai chha timilai
C      Am             F     G
sapana dekhna kahile nadaraunu hai

C     Em      Am          F
yaad haru ko ghar timile sajauda
C      Am             F     G
mero lagi pani thorai thau banaunu hai?

F                      G
ho timro lagi maile geet koreko 

F                      G
musukka muskurauda maan ramayeko

F                      G
aankhai ko gajalu le kya suhayeko 

F                      G
kura adhuro chodi kaha harayeko?

C      Am             F     G
eh sunana k saro ramri bhako?

Dm                  C  
timi ra maile hidne bato arkai chha

F                     G
samaya thorai, sapana thulo chha

Am                    C
sansar samu mero geet puryaunuchha
F                    G
thakeko chaina ma yo bato lamo chha

Am                       C
aasha namara hami chadai bhetaula *2

F                       G  
aayera samu timro pheri bhanaula ma

C      Am             F     G
eh sunana k saro ramri bhako *2

C     Em      Am          F
lala lala lalal lalala *4
Добавлено: 28.08.2015
Вам также может быть интересно:
Другие материалы по этой песне:

Страница создана 28.08.2015
http://primanota.ru/swoopna-suman/k-saro-ramri-bhako-chords.htm
Привет, Гость.
Предлагаем пройти революционный курс по гитаре.
Подарок от PrimaNota.Ru, забирай!