PrimaNota.ru - самый крупный в мире бесплатный архив песенных текстов, аккордов, табулатур и нот


Switchfoot - Yet - аккорды и текст, бас-таба, видео

Регистрация Запомнить меня
Войти через:  Facebook Google Twitter Vk Yandex Mail.ru

Switchfoot - Yet - аккорды и текст, бас-таба, видео

Печатать
Просмотров: 223
Yet
Switchfoot
Switchfoot 
Yet
Hello Hurricane -- 2009

Tuning - Standard (E A D G B E)
*Chords are listed at end of song

Intro
C Csus4 C F [4x]

Verse 1
F                 C  
All attempts have failed
G                Am
All my heads are tails
F               C
She's got teary eyes
G                Am  
I've got reasons why

Pre-Chorus 1
    F*                 G*
I'm loosing ground and gaining speed
     F*             G*      
I've lost myself or most of me
    D5             G          F 
I'm headed for the final precipice

Chorus 1
                        C  Csus4  C  F 
But you haven't lost me yet
                        C  Csus4  C  F 
No, you haven't lost me yet
                   Am    G     F       
I'll sing until my heart caves in
                        
No, you haven't lost me yet

Interlude 1 - Gtr 1 & 2
      C       Csus4 C 
e|------------------|
B|------------------|
G|-------9----10-9--|
D|--7/10---10-------|2x
A|------------------|
E|------------------|

Verse 2 - Same as V1
These days pass me by
Dream with open eyes
Nightmares haunt my days
Visions blur my nights

Pre-Chorus 2 - Same as PC1
I'm so confused
What's true or false?
What's fact or fiction after all?
I feel like I'm apparition's pet

Chorus 2
But you haven't lost me yet
No, you haven't lost me yet
I'll run until my heart breaks in
No, you haven't lost me yet

Interlude 2
Guitar 1
C    Bb5  F - 2x
Ooo, ooo, ooo

Guitar 2
e|----8/10/12-8----8-6/12-8--|
B|--8------------8-----------|
G|---------------------------|
D|---------------------------|2x
A|---------------------------|
E|---------------------------|

Bridge 
C                   F  
If it doesn't break
                    C
If it doesn't break
                    F 
If it doesn't break 
            C                                       F
If, if, if, if it doesn't break your heart it isn't love?
          C                                 F
No, if it doesn't break your heart it's not enough
     Am                   G              F
It's when you're breaking down with your insides coming out
       C                                         F 
That's when you find out what your heart is made of

Chorus 3
                        Am  G  F
And you haven't lost me yet
                        C  Csus4  C  F 
No, you haven't lost me yet
                   Am    G     F       
I'll sing until my heart caves in
                        
No, you haven't lost me yet

Outro - Gtr 1 & 2
    C       Csus4 C        C 
e|----------------|    e|------|
B|----------------|    B|------|
G|-----9----10-9--|    G|---9--|
D|--10---10-------|3x  D|--10--| 
A|----------------|    A|------|
E|----------------|    E|------|

*Chords Used
    C  Csus4  F  G  Am  F*  G*  D5  Bb5    
e|---------------3----------------------|
B|--1----1----1--0--1---1---3---2-------|
G|--0----0----2--0--2---2---4---3----3--|
D|--2----3----3--0--2---3---5---0----3--|
A|--3----3----3--x--0----------------1--|
E|-----------(1)-3----------------------|
Добавлено: 16.05.2012
Другие материалы по этой песне:
  • Аккорды и текст

Страница создана 29.02.2012
http://primanota.ru/switchfoot/yet-chords.htm
Привет, Гость.
Предлагаем пройти революционный курс по гитаре.
Подарок от PrimaNota.Ru, забирай!