PrimaNota.ru - самый крупный в мире бесплатный архив песенных текстов, аккордов, табулатур и нот


Switchfoot - Revenge - текст песни, таба, видео

Регистрация Запомнить меня
Войти через:  Facebook Google Twitter Vk Yandex Mail.ru

Switchfoot - Revenge - текст песни, таба, видео

Печатать
Просмотров: 123
I got this song as a bonus download by pre-buying "oh! gravity" from
switchfoot. If you have this as well, here's the tab for it!

Intro: acoustic
e------------3-333----33------------------3-333----33-------->
B------------3-333----33------------------3-333----33-------->
G--0---0-----0-000--------------0---0-----0-000-------------->
D--0h2-0h2---2-222--------------0h2-0h2---2-222-------------->
A-3--------0--------------0-/5-3--------0--------------0-/5-->
E------------------0----3-----------------------0----3------->

Verse 1:
e------------------------------------------------------------>
B------------------------------------------------------------>
G--0---0--------0------0-----0--0---0--------0-----0--------->
D--0h2-0h2--------------0-------0h2-0h2-------------0-------->
A-3--------0-------------------3--------0--------------0-/5-->
E------------------0-----3----------------------0----3------->
I'm the failure, I'm everyone's fool/and I'm losing my cool at the ends

Verse 1:
e----------------------------------------------------3~----3->
B----------------------------------------------------3~----3->
G--0---0--------0------0--------0---0--------0-------0~------>
D--0h2-0h2--------------0-------0h2-0h2--------------0~------>
A-3--------0---------------0-2-3--------0------------2~------>
E------------------0-----3----------------------0----3~------>
I'm the loser/my number's come up/I've been hung up with thoughts of
revenge, revenge, revenge

Chorus:
e------------3-333----33------------------3-333----33-------->
B------------3-333----33------------------3-333----33-------->
G--0---0-----0-000--------------0---0-----0-000-------------->
D--0h2-0h2---2-222--------------0h2-0h2---2-222-------------->
A-3--------0--------------0-2-3--------0--------------------->
E------------------0----3-----------------------0----3~------>
Whoa-oh…  Whoa-oh…

Verse 2:
e------------------------------------------------------------>
B------------------------------------------------------------>
G--0---0--------0------0--------0---0--------0-----0--------->
D--0h2-0h2--------------0-------0h2-0h2-------------0-------->
A-3--------0---------------0-2-3--------0-----------------2-->
E------------------0-----3----------------------0----3------->
I watched you from my terminal view/as you struggled to rise to your end

Verse 2:
e----------------------------------------------------3~----3->
B----------------------------------------------------3~----3->
G--0---0--------0------0--------0---0--------0-------0~------>
D--0h2-0h2--------------0-------0h2-0h2--------------0~------>
A-3--------0-------------------3--------0------------2~------>
E------------------0-----3----------------------0----3~------>
I laughed hard at the insults we threw/as the weight of the world found
revenge, revenge, revenge

Chorus 2:
e--3---3-----3-333----33--3-33--3---3-----3-333----33--3-33-->
B--3---3-----3-333----33--3-33--3---3-----3-333----33--3-33-->
G--0---0-----0-000----00--0-00--0---0-----0-000----00--0-00-->
D--0h2-0h2---2-222----22--2-22--0h2-0h2---2-222----22--2-22-->
A-3--------0------------------3--------0--------------------->
E------------------0----3-----------------------0----3------->
Whoa-oh… have hatred and gravity won?

Chorus 2:
e--3---3-----3-333----00--3-33--3---3-----0-000----00-3~----->
B--3---3-----3-333----33--3-33--3---3-----3-333----33-3~----->
G--0---0-----0-000----00--0-00--0---0-----0-000----00-0~----->
D--0h2-0h2---2-222----22--2-22--0h2-0h2---2-222----22-0~----->
A-3--------0------------------3--------0--------------2~----->
E------------------0----3-----------------------0-----3~----->
Whoa-oh… whoa-oh

Bridge: (this is a keyboard part; I'll give you my guitar version)
        *use thumb on the low E string
  Am   G    C    Gm   Am   Gm *Fadd9 Am   G    C    Gm   Am   Gm *Fadd9
e-----------------------------------------------------------------------00->
B-1~---0~---1~---3~---1~---3~---1~---1~---0~---1~---3~---1~---3~---1-11-11->
G-2~---0~---0~---3~---2~---3~---0~---2~---0~---0~---3~---2~---3~---0-00-00->
D-2~---0~---2~---5~---2~---5~---3~---2~---0~---2~---5~---2~---5~---3-33-33->
A-0~---2~---3~---5~---0~---5~---3~---0~---2~---3~---5~---0~---5~---3-33-33->
E-------------------------------1~---------------------------------1-11-11->
The world hung upside down/I drew first blood/I drew first blood/My hate
for a crown/I drew first blood/I drew first blood

Verse 3:
e-3~--------------------3-333----33-----------------3-333----33------->
B-3~--------------------3-333----33-----------------3-333----33------->
G-0~----------0---0-----0-000-------------0---0-----0-000------------->
D-0~----------0h2-0h2---2-222-------------0h2-0h2---2-222------------->
A-2~----0-/5-3--------0--------------0-2-3--------0--------------0-2-->
E-3~--3-----------------------0----3----------------------0----3------>
Revenge/I watched heaven die in today/and I'm gonna die here tonight

Verse 3:
e---------------------------33-----------------------3~----3->
B---------------------------33-----------------------3~----3->
G--0---0--------0------0--------0---0--------0-------0~------>
D--0h2-0h2--------------0-------0h2-0h2--------------0~------>
A-3--------0-------------------3--------0------------2~------>
E------------------0-----3----------------------0----3~------>
I'm a villain, I deserve to be dead/I've been hung up for wrecking my
life/Revenge, revenge

---REPEAT CHORUS

Bridge 2:
e-1-1-11-1-11-3-3-33-3----0-00-3-333-1-1-11-1-11-0-1-1-11-1-11-3-3-33-3-33->
B-1-1-11-1-11-3-3-33-3----1-11-3-333-1-1-11-1-11-0-1-1-11-1-11-3-3-33-3-33->
G-0-0-00-0-00-0-0-00-0----2-22-0-000-0-0-00-0-00-0-0-0-00-0-00-0-0-00-0-00->
D-3-3-33-3-33-0-0-00-0----2-22-0-000-3-3-33-3-33-0-3-3-33-3-33-0-0-00-0-00->
A-3-3-33-3-33-2-2-22-20-3-0-00-2-222-3-3-33-3-33-0-3-3-33-3-33-2-2-22-2-22->
E-1-1-11-1-11-3-3-33-3---------3-333-1-1-11-1-11---1-1-11-1-11-3-3-33-3-33->


Bridge 2:
e-0-00-000-00-0-0-0-1-1-1-1-1-11-1-1-3-0-0-00->
B-0-00-000-00-1-1-1-3-3-3-1-1-11-1-1-3-0-0-00->
G-1-11-111-11-2-2-2-3-3-3-2-2-22-2-2-0-0-0-00->
D-0-00-000-00-2-2-2-3-3-3-3-3-33-3-3-0-0-0-00->
A-2-22-222-22-0-0-0-1-1-1-3-3-33-3-3-2-------->
E-0-00-000-00-------------1-1-11-1-1-3-------->
So I stopped for a moment/to look at the sun/dying that day/When the irony
hit me/that this was revenge/The love had defended and stolen our pain away

Bridge: (this is a keyboard part; I'll give you my guitar version)
        *use thumb on the low E string
  Am   G    C    Gm   Am   Gm *Fadd9 Am   G    C    Gm   Am   Gm *Fadd9
e-----------------------------------------------------------------------00->
B-1~---0~---1~---3~---1~---3~---1~---1~---0~---1~---3~---1~---3~---1-11-11->
G-2~---0~---0~---3~---2~---3~---0~---2~---0~---0~---3~---2~---3~---0-00-00->
D-2~---0~---2~---5~---2~---5~---3~---2~---0~---2~---5~---2~---5~---3-33-33->
A-0~---2~---3~---5~---0~---5~---3~---0~---2~---3~---5~---0~---5~---3-33-33->
E-------------------------------1~---------------------------------1-11-11->
We consumed heaven's Son/I drew first blood/I drew first blood/But my hate
was undone/I drew first blood/I drew first blood

Verse 4:
e-3~--------------------3-333----33-----------------3-333----33------->
B-3~--------------------3-333----33-----------------3-333----33------->
G-0~----------0---0-----0-000-------------0---0-----0-000------------->
D-0~----------0h2-0h2---2-222-------------0h2-0h2---2-222------------->
A-2~----0-/5-3--------0----------------2-3--------0------------------->
E-3~--3-----------------------0----3----------------------0----3~----->
Revenge/Here's a story/how a thief had been robbed/how a murder has stolen
my rage

Verse 4:
e------------3-333----33------------------3-333-0~---3~------>
B------------3-333----33------------------3-333-3~---3~------>
G--0---0-----0-000--------------0---0-----0-000-0~---0~------>
D--0h2-0h2---2-222--------------0h2-0h2---2-222-0~---0~------>
A-3--------0--------------0-/5-3--------0-------2~---3~------>
E------------------0----3-----------------------0~---3~------>
Think of me, Lord/I'm a few breaths away/as my lungs finally rip from the
cage

outro:
e------------3-333----33------------------0-000~------------->
B------------3-333----33------------------3-333~------------->
G--0---0-----0-000--------------0---0-----0-000~------------->
D--0h2-0h2---2-222--------------0h2-0h2---2-222~------------->
A-3--------0--------------0-2-3--------0------0~------------->
E------------------0----3---------------------0~------------->
Revenge Whoa-oh…
Добавлено: 20.03.2012
Другие материалы по этой песне:
  • Аккорды и текст

Страница создана 20.03.2012
http://primanota.ru/switchfoot/revenge-chords.htm
Привет, Гость.
Предлагаем пройти революционный курс по гитаре.
Подарок от PrimaNota.Ru, забирай!