PrimaNota.ru - самый крупный в мире бесплатный архив песенных текстов, аккордов, табулатур и нот


Switchfoot - Only hope1 - таба, видео

Регистрация Запомнить меня
Войти через:  Facebook Google Twitter Vk Yandex Mail.ru

Switchfoot - Only hope1 - таба, видео

Печатать
Просмотров: 96


This is a great song by one of the best bands out there.
This song demonstrates the quality in both lyrics and
music that we have come to expect out of Switchfoot. Have Fun.
~~~~Zach





INTRO:

|-----------------------------------------------|
|-----------------------------------------------|
|-------6/7-9---6/7-7-7-------------------------|
|-----9-------9---------10-9-9-8----------------|
|-2/7----------------------------10-7-9-10-9-7--|
|-----------------------------------------------|

|------| (x2)
|------|
|------|
|------|
|----7-|
|-10---|

VERSE 1:

|------3----------------------------------------|
|----0-------0--------------------3-------3-----|
|-/2----------------2/----------0---0---0---0---|
|----------0------0--------4--------------------|
|--------------/2--------2---/3-----------------|
|--------3-------------0--------------3---------|

|----------------|  (x4)
|------3---------|
|----0---0-----4-|
|------------4---|
|-/3-------2-----|
|----------------|

CHORUS:

      E           B              A
So i lay.........head...........down
        E         B             A
And I lift.......hands.........pray
       C#m7         A          C#m7
To be only.........pray........only
   C2          Bm
I know........only

VERSE 2 INTRO:

|------3----------------------------------------|
|----0-------0--------------------3-------3-----|
|-/2----------------2/----------0---0---0---0---|
|----------0------0--------4--------------------|
|--------------/2--------2---/3-----------------|
|--------3-------------0--------------3---------|

|----------------|  (x1)
|------3---------|
|----0---0-----4-|
|------------4---|
|-/3-------2-----|
|----------------|

VERSE 2:

Em      G         Bm    Em   Sing....me.......song
         C2  G  C2  Bsus
.......stars
Em         G        Bm   Em
  Of....galaxies....dancing
   C2          G        C2 Bsus
..laughing..laughing..again
Em            G       Bm  Em
  When......seems.....dreams
        C2  G  C2  Bsus
........far
Em         G      Bm  Em
 Sing......me.....song
  C2        G       C2  Bsus
..have.....over....again

(CHORUS)

BRIDGE INTRO:

|-----------------------------------------------|
|-----------------------------------------------|
|---4-4----4-4-----------4-4-----------4-4------|
|-2------0--------4-4--2--------5-5--2----------|
|---------------2-------------3-----------------|
|-----------------------------------------------|

|--------------| (x2)
|--------------|
|----------4-4-|
|---5-5--2-----|
|-3------------|
|--------------|

G              Em
 I give......apathy
G               Em
 I'm giving.....all
G             Em                  F#
 I want.....symphony...........singing
  A   B           A  B
..life............back

FINAL CHORUS:

      E           B              A
So i lay.........head...........down
       E           B            A
And I lift.......hands.........pray
      C#m7          A          C#m7
To be only.........pray........only
 A          C#m7
pray........only
   C2          Bm
I know........only

ENDING:

|------3----------------------------------------|
|----0-------0--------------------3-------3-----|
|-/2----------------2/----------0---0---0---0---|
|----------0------0--------4--------------------|
|--------------/2--------2---/3-----------------|
|--------3-------------0--------------3---------|

|----------------|  Em....
|------3---------|
|----0---0-----4-|
|------------4---|
|-/3-------2-----|
|----------------|






Добавлено: 17.08.2013
Другие материалы по этой песне:
  • Аккорды и текст

Страница создана 17.08.2013
http://primanota.ru/switchfoot/only-hope1-chords.htm
Привет, Гость.
Предлагаем пройти революционный курс по гитаре.
Подарок от PrimaNota.Ru, забирай!