PrimaNota.ru - самый крупный в мире бесплатный архив песенных текстов, аккордов, табулатур и нот


Switchfoot - Hello Hurricane - аккорды и текст, таба, бас-таба, драм-таба, видео

Регистрация Запомнить меня
Войти через:  Facebook Google Twitter Vk Yandex Mail.ru

Switchfoot - Hello Hurricane - аккорды и текст, таба, бас-таба, драм-таба, видео

Печатать
Просмотров: 228
Hello Hurricane
Switchfoot
Switchfoot
Hello Hurricane 
Hello Hurricane -- 2009

These are the chords from Switchfoot's new song "Hello Hurricane" from their
upcoming album/release Hello Hurricane -- due out in September '09.

Guitar 1: Standard (E A D G B E) - Mandolin to Guitar
Guitar 2: Standard (E A D G B E) - Guitar (Electric) 
Guitar 3: Stamdard (E A D G B E) - Keyboard to Guitar
*Chords are listed at end of song

Intro 
Guitar 1 (0:11-0:36)
e|-----|      e|-----|
B|--3--|      B|--8--|
G|--0--|  OR  G|--7--|
D|--0--|      D|--5--|
A|--x--|      A|-----|
E|--3--|      E|-----|
              NOTE: This chord sounds more like a mandolin in my opinion.   
(0:37-1:00)
e|-------------------------------------|
B|--3-3-3-3--3-3-3-3--3-3-3-3-3-3-3-3--|
G|--0-0-0-0--0-0-0-0--0-0-0-0-0-0-0-0--|
D|--2-2-2-2--2-2-2-2--0-0-0-0-0-0-0-0--|[4x]
A|--2-2-2-2--3-3-3-3--x-x-x-x-x-x-x-x--|
E|--0-0-0-0-----------3-3-3-3-3-3-3-3--|
  
Guitar 2 (0:37-1:00)
e|----------------------------|
B|--12----12-----12----12-----|
G|-----12----12-----12----12--|
D|----------------------------|
A|----------------------------|
E|----------------------------|

Guitar 3 (0:49-1:00)
e|--15\14\12\10--10\8\7--|
B|-----------------------|
G|-----------------------|
D|-----------------------|
A|-----------------------|
E|-----------------------|

Verse 1
Em        Cadd9        Gsus2
I've been watching the skies
Em           Cadd9      Gsus2
They've been turning blood red
Em    Cadd9       Gsus2        Cadd9 
Not a doubt in my mind  anymore
          D/F#     Em
There's a storm up ahead

Chorus
Gsus2        Cadd9
Hello hurricane
          Em
You're not enough
Gsus2        Cadd9
Hello hurricane
          D 
You can't silence my love
         Cadd9     Gsus2           D
I've got doors and windows boarded up
         Cadd9    Gsus2       D
All your dead end fury is not enough
                      Em7 Cadd9 Gsus2 [2x]
You can't silence my love          My love

Verse 2 - Same as V1
Every thing I have I count as loss 
Everything I have is stripped away 
Before I started building 
I counted up these costs 
There's nothing left for you to take away 

Chorus

Bridge 
G5            Bb5          C5 
I'm a fighter fighting for control 
G5            Bb5             C5
I'm a fighter fighting for my soul 
Em         Dsus2        Cadd9   
Everything inside of me surrenders 
                      Gsus2 (Intro: Guitar 1)
You can't silence my love 

Chorus

*Chords Used
    Gsus2  Cadd9  Em7  Em  D/F#  D  G  G5  Bb5  C5  Dsus2       
e|---(3)----------(0)------------2--------------------0--|
B|----3------3-----3--------3----3--3-----------------3--|
G|----0------0-----0---0----2----2--0-----------------2--|
D|----0------2-----2---2----0----0--0--5----8---10----0--|
A|----x------3-----2---2----x-------2--5----8---10-------|
E|----3------------0---0----2-------3--3----6----8-------|
Добавлено: 14.06.2012
Другие материалы по этой песне:

Страница создана 05.03.2012
http://primanota.ru/switchfoot/hello-hurricane-chords.htm
Привет, Гость.
Предлагаем пройти революционный курс по гитаре.
Подарок от PrimaNota.Ru, забирай!