PrimaNota.ru - самый крупный в мире бесплатный архив песенных текстов, аккордов, табулатур и нот


Switchfoot - God Only Knows - таба, видео

Регистрация Запомнить меня
Войти через:  Facebook Google Twitter Vk Yandex Mail.ru

Switchfoot - God Only Knows - таба, видео

Печатать
Просмотров: 85
I found this song on the internet as a video and tabbed it off the video. It helped me
watching where his fingers went, so I'm pretty sure this is as close to 100% correct as I
get. I'd never heard this song before I found it, so I don't know if it was an acoustic 
or if the original song was acoustic. Anyway, here it is.

Intro: acoustic
e-0-00-0-00-2-22-0-00-0-00-0~---2~---0~-------->
B-2-22-0-00-2-22-0-00-2-22-0~---2~---0~-------->
G-2-22-1-11-2-22-1-11-2-22-1~---2~---1~-------->
D-2~---2~---4~---2~---2~---2~---4~---2~-------->
A-0~---2~---4~---2~---0~---2~---4~---2~-------->
E------0~---2~---0~--------0~---2~---0~--023~-->
Oh…

Verse 1: staccato (in other words, let up really fast after you strum it)
e-2-2-2-2--------------------------------------------------------->
B-3-3-3-3-3-3-3-3-----------------9-9-9-9-101010109-9-9-9-5-5-5-5->
G-2-2-2-2-4-4-4-4-2-2-2-2-8-8-8-8-9-9-9-9-111111119-9-9-9-6-6-6-6->
D-0-0-0-0-4-4-4-4-4-4-4-4-9-9-9-9-9-9-9-9-111111119-9-9-9-6-6-6-6->
A---------2-2-2-2-4-4-4-4-9-9-9-9-7-7-7-7-9-9-9-9-7-7-7-7-4-4-4-4->
E-----------------2-2-2-2-7-7-7-7--------------------------------->
I mean I'll always love you/as long as I have stars above you/You never
need to doubt it/I'm making so sure about it

Chorus:
e-------------------------0~------>
B-------------------------0~------>
G-6-6-6-6---------2-2-2-2-1~------>
D-7-7-7-7-6-6-6-6-4-4-4-4-2~------>
A-7-7-7-7-7-7-7-7-4-4-4-4-2~------>
E-5-5-5-5-4-4-4-4-2-2-2-2-0--023~->
God only knows what I'd be without you

Verse 2:
e-2-2-2-2--------------------------------------------------------->
B-3-3-3-3-3-3-3-3-----------------9-9-9-9-101010109-9-9-9-5-5-5-5->
G-2-2-2-2-4-4-4-4-2-2-2-2-8-8-8-8-9-9-9-9-111111119-9-9-9-6-6-6-6->
D-0-0-0-0-4-4-4-4-4-4-4-4-9-9-9-9-9-9-9-9-111111119-9-9-9-6-6-6-6->
A---------2-2-2-2-4-4-4-4-9-9-9-9-7-7-7-7-9-9-9-9-7-7-7-7-4-4-4-4->
E-----------------2-2-2-2-7-7-7-7--------------------------------->
If you should ever leave me/life would still go on, believe me/this world
could show nothing to me/so what good would living do me?

---REPEAT CHORUS

bridge:
e---------------------------------------------------------------->
B-7-7---779-9----7-7---779-9---995-5-5-5-6-6-6-6-5-5-5-5-7-7-7-7->
G-7-7---779-9----7-7---779-9---996-6-6-6-7-7-7-7-6-6-6-6-8-8-8-8->
D-9-9---991111---9-9---999-9---997-7-7-7-7-7-7-7-7-7-7-7-9-9-9-9->
A-9-9---991111---9-9---997-7---777-7-7-7-5-5-5-5-7-7-7-7-9-9-9-9->
E-7-7---779-9----7-7---77--------5-5-5-5---------5-5-5-5-7-7-7-7->
Oh… lalalala

Chorus 2:
e-----------------2-2-2-2->
B-7-7-7-7-5-5-5-5-3-3-3-3->
G-7-7-7-7-6-6-6-6-4-4-4-4->
D-7-7-7-7-7-7-7-7-4-4-4-4->
A-5-5-5-5-7-7-7-7-2-2-2-2->
E---------5-5-5-5--------->
God only knows what I'd be without you

Verse 2:
e----------------------------------------------------------------->
B-3~------3~------2~--------------9-9-9-9-101010109-9-9-9-5-5-5-5->
G-2~------4~------2~------8~------9-9-9-9-111111119-9-9-9-6-6-6-6->
D-0~------4~------4~------9~------9-9-9-9-111111119-9-9-9-6-6-6-6->
A---------2~------4~------9~------7-7-7-7-9-9-9-9-7-7-7-7-4-4-4-4->
E-----------------2~------7~-------------------------------------->
If you should ever leave me/Life would still go on, believe me/this world
could show nothing to me/so what good would living do me?

Chorus 3:
e---------------------------------------------------------------->
B---------------------------------------------------------------->
G-6-6-6-6---------2-2-2-2---------6~--------------2~------------->
D-7-7-7-7-6-6-6-6-4-4-4-4-6-6-6-6-7~------6~------4~------6~----->
A-7-7-7-7-7-7-7-7-4-4-4-4-7-7-7-7-7~------7~------4~------7~----->
E-5-5-5-5-4-4-4-4-2-2-2-2-4-4-4-4-5~------4~------2~------4~----->
God only knows what I'd be without you/God only knows what I'd be without
you/God only knows what I'd be without

Chorus 3:
e------------------------------------------------------------------------->
B------------------------------------------------------------------------->
G-6~--------------2~--------------6-6-6-6---------2-2-2-2---------6-6-6-6->
D-7~------6~------4~------6~------7-7-7-7-6-6-6-6-4-4-4-4-6-6-6-6-7-7-7-7->
A-7~------7~------4~------7~------7-7-7-7-7-7-7-7-4-4-4-4-7-7-7-7-7-7-7-7->
E-5~------4~------2~------4~------5-5-5-5-4-4-4-4-2-2-2-2-4-4-4-4-5-5-5-5->
God only knows what I'd be without you/God only knows what I'd be without/
God only knows/God only knows what I'd be without you/God only knows what
I'd be without/God only

Chorus 3:
e---------------------------------------------------------------------0~--->
B---------------------------------------------------------------------0~--->
G---------2-2-2-2---------6-6-6-6---------2-2-2-2---------6~------2~--1~--->
D-6-6-6-6-4-4-4-4-6-6-6-6-7-7-7-7-6-6-6-6-4-4-4-4-6-6-6-6-7~--6~--4~--2~--->
A-7-7-7-7-4-4-4-4-7-7-7-7-7-7-7-7-7-7-7-7-4-4-4-4-7-7-7-7-7~--7~--4~--2~--->
E-4-4-4-4-2-2-2-2-4-4-4-4-5-5-5-5-4-4-4-4-2-2-2-2-4-4-4-4-5~--4~--2~--0~--->
knows what I'd be without you/God only knows what I'd be without/Lalala Oh…
Добавлено: 26.04.2012
Другие материалы по этой песне:
  • Аккорды и текст

Страница создана 26.04.2012
http://primanota.ru/switchfoot/god-only-knows-chords.htm
Привет, Гость.
Предлагаем пройти революционный курс по гитаре.
Подарок от PrimaNota.Ru, забирай!