PrimaNota.ru - самый крупный в мире бесплатный архив песенных текстов, аккордов, табулатур и нот


Switchfoot - Dirty Second Hands - аккорды и текст, таба, видео

Регистрация Запомнить меня
Войти через:  Facebook Google Twitter Vk Yandex Mail.ru

Switchfoot - Dirty Second Hands - аккорды и текст, таба, видео

Печатать
Просмотров: 138
Авторы музыки: Jon Foreman, Todd Cooper

Dirty Second Hands
Switchfoot
-----------------------------------------------------------------------------
                         DIRTY SECOND HANDS                  SWITCHFOOT     
-----------------------------------------------------------------------------

Tabbed by:hurricaneherman
Tuning:Drop D tuning(D-A-D-G-B-E)

Here are the chords for Switchfoot's song, Dirty Second Hands from their
album, Oh! Gravity.

*Chords listed at end

~INTRO~

I tabbed this out because there are no chords.
NOTE:If you don't want to play any riffs, you can play D5/A for the entire
intro.

e|---------------------------------------------------------------|
B|----------------3---3--------------------3---3-----------------|
G|----------------2---2--------------------2---2-----------------|
D|0-3---0---0-----0---0-0----3---0---0-----0---0-0---3---0---0---|
A|--------3-------0---0------------3-------0---0-----------3-----|
D|------------0---0---0----------------0---0---0---------------0-|

~VERSE~

D5/A            Em/D Dm7   Dsus4 D
Please don't be so   naive    
(D)                 D5/A D         D5/A 
You know you're not foo-ling anyone
(D5/A                 Em/D Dm7       Dsus4 D5/A
You're not as tough as     you think
(D5/A)
With dirty second hands the dirty second hands
(D5/A)         Em/D Dm7      Dsus4 D     
Can't get nothing   for free 
(D)        D5/A  D          D5/A 
It becomes so    predictable
(D5/A)         Em/D Dm7       Dsus4 D5/A
You start fighting  to breathe
(D5/A)
The dirty second hands your dirty second hands

~CHORUS~

F5         B5      F5    B5        C5     C#  D5/A
Here's the face of everything that brakes you down
    F5      B5       F5      B5    C         C#5        D5/A
But now you face the face of everything that brakes you down

~VERSE~ (Chords are the same as verse 1)

With an army of me 
We invent our own enemies
Man versus machine
And the dirty second hands the dirty second hands
In the land of the free 
And the home of the remedy
The old clock is a thief
With dirty second hands with dirty second hands

~REPEAT CHORUS~

~BRIDGE~ NOTE:You keep repeating the intro riff all the way through
The bridge, until the chords come in, or you can just play D5/A throughout.

Are you really as tough as you think
You blink and you're over the brink
You bleed but the blood runs pink
With dirty second hands dirty second hands
You're not quite as tough as you thought
You bought the American rot
The very seed that you thought you shot
With dirty second hands dirty second hands
You might be right the fight might be right inside you
The blind leading the lied to
Tonight maybe you bind you with dirty second hands
F5         B5      F5    B5        C5     C#5 D5/A
Here's the face of everything that brakes you down

You bind you with dirty second hands
F5      B5       F5      B5    C5        C#5        D5/A
Now you face the face of everything that brakes you down

You bind you with dirty second hands
F5      B5       F5      B5    C5        C#5        D5/A
Now you face the face of everything that brakes you down

~OUTRO~

Play the intro riff once, and then end on D5/A.

*Chords used
      D5/A  Em/D  Dm7   Dsus4   D   Dsus2   F5    B5    C5   C#5
e|-----x-----0-----1-----3-----2-----0-----x-----x-----x-----x-----|
B|-----3-----0-----1-----3-----3-----3-----x-----x-----x-----x-----|
G|-----2-----0-----2-----2-----2-----2-----10----4-----5-----6-----|
D|-----0-----0-----0-----0-----0-----0-----10----4-----5-----6-----|
A|-----0-----x-----x-----x-----x-----x-----8-----2-----3-----4-----|
D|-----0-----x-----x-----x-----x-----x-----x-----x-----x-----x-----|


This tab should be 100% correct, but if you find anything wrong, please leave
a comment, so I can fix it for you.I tabbed out the entire "The Best Yet"
album, but I'm putting up some of the individual songs.
=============================================================================
Добавлено: 10.06.2012
Другие материалы по этой песне:
  • Аккорды и текст

Страница создана 12.04.2012
http://primanota.ru/switchfoot/dirty-second-hands-chords.htm
Привет, Гость.
Предлагаем пройти революционный курс по гитаре.
Подарок от PrimaNota.Ru, забирай!