PrimaNota.ru - самый крупный в мире бесплатный архив песенных текстов, аккордов, табулатур и нот


Switchfoot - Always - аккорды и текст, таба, бас-таба, видео

Регистрация Запомнить меня
Войти через:  Facebook Google Twitter Vk Yandex Mail.ru

Switchfoot - Always - аккорды и текст, таба, бас-таба, видео

Печатать
Просмотров: 111
Always
Switchfoot
----------------------------------------------------------------------------
	          ALWAYS (RADIO EDIT VERSION) - Switchfoot
----------------------------------------------------------------------------

Tabbed by: Brad Linder
Email: master_ibonek@yahoo.com

Tuning: Standard (EADGBe)

This is a tab for the radio edit version of the song Always by Switchfoot. It has an 
guitar part that is not on the album version.


Verse 1:

C
This is the start
F
This is your heart
Am          G            F
This is the day you were born
C
This is the sun
F
These are your lungs
Am          G            F
This is the day you were born

Chorus:

         	Am  	F
And I am al--ways
C   F
Al--ways
Am  G    C
Al--ways yours

Verse 2:

C
These are the scars
F
Deep in your heart
Am          G              F
This is the place you were born
Am          Em
This is the hole
      F            C
Where most of your soul
      G	     Am
Comes ripping out
         G                  F
From the places you've been torn


Chorus 2

Interlude:

e|-15---13---12---13---15--------15---13---12---13---12--------------------|
B|--------------------------13---------------------------------------------|
G|-------------------------------------------------------10----------------|
D|-------------------------------------------------------------------------|
A|-------------------------------------------------------------------------|
E|-------------------------------------------------------------------------|

e|------15--13---12--13--12---10--12--10--8--8/12--12--12/15--15--15-------|
B|-------------------------------------------------------------------------|
G|-------------------------------------------------------------------------|
D|-------------------------------------------------------------------------|
A|-------------------------------------------------------------------------|
E|-------------------------------------------------------------------------|

	*Go back to beginning of interlude one more time and play ending below.*

		(2nd Time is different at the end - Hold out last note)

e|-------15--13--12--13--12--10--12--10--8---------------------------------|
B|-------------------------------------------------------------------------|
G|-------------------------------------------------------------------------|
D|-------------------------------------------------------------------------|
A|-------------------------------------------------------------------------|
E|-------------------------------------------------------------------------|

	*This is the second guitar part that harmonizes with the first. Sounds real nice.*

e|-------------------------------------------------------------------------|
B|-------------------------------------------------------------------------|
G|--12---10---9---10---12------12---10---9---10---9------------------------|
D|-------------------------9-----------------------------------------------|
A|----------------------------------------------------8--------------------|
E|-------------------------------------------------------------------------|

e|--12---10---9---10---9---7---9---7---5---5/9---9---9/12---12---12--------|
B|-------------------------------------------------------------------------|
G|-------------------------------------------------------------------------|
D|-------------------------------------------------------------------------|
A|-------------------------------------------------------------------------|
E|-------------------------------------------------------------------------|

	*Go back to beginning of interlude one more time and play ending below.*

	(2nd Time is different at the end just like the first guitar part - Hold out last note)

e|--------12---10---9---10---9---7---9---7---5-----------------------------|
B|-------------------------------------------------------------------------|
G|-------------------------------------------------------------------------|
D|-------------------------------------------------------------------------|
A|-------------------------------------------------------------------------|
E|-------------------------------------------------------------------------|

Bridge
      F
Hallelujah!
          C
I'm caving in
      F
Hallelujah!
            C     G
I'm in love again
      Am
Hallelujah!
F              C  G
I'm a wretched man
      Am
Hallelujah!
      F                  C
Every breath is a second chance

Chorus  4X

| /  slide up
| \  slide down
| h  hammer-on
| p  pull-off
| ~  vibrato
| +  harmonic
| x  Mute note
============================================================================
Добавлено: 10.09.2013
Другие материалы по этой песне:
  • Аккорды и текст

Страница создана 21.07.2013
http://primanota.ru/switchfoot/always-chords.htm
Привет, Гость.
Предлагаем пройти революционный курс по гитаре.
Подарок от PrimaNota.Ru, забирай!