PrimaNota.ru - самый крупный в мире бесплатный архив песенных текстов, аккордов, табулатур и нот


Swinging Blue Jeans - What Can I Do Today - аккорды и текст, видео

Регистрация Запомнить меня
Войти через:  Facebook Google Twitter Vk Yandex Mail.ru

Swinging Blue Jeans - What Can I Do Today - аккорды и текст, видео

Печатать
Просмотров: 166
What Can I Do Today
Swinging Blue Jeans
SONG:   WHAT CAN I DO TODAY
ARTIST: THE SWINGING BLUE JEANS
TAB BY: DON CZARSKI
EMAIL:  GUITARZAN7@HOTMAIL.COM


               WHAT CAN I DO TODAY
             THE SWINGING BLUE JEANS


CAPO: 3rd FRET

INTRO:

One, two, three, four
 
    E E A E    D D G D    E E A E   E E  E A E

E ----4-5-4------2-3-2------2-3-2--------4-5-4---
B --5----------3----------5----------5-5---------
G -----------------------------------------------
D -----------------------------------------------
A -----------------------------------------------
E -----------------------------------------------


VERSE: GUITAR 1
E      A          B
  She said she'd come
E            A
  Be here tomorrow
E           D     E   E
 What can I do today


GUITAR 2: 
(PLAYS THIS DURING THE VERSE)

E ---4-5-4--------------4-5-4-----9-10-9-----4-5-4----
B -5----------4-5-4---5--------10----------5----------
G ----------4-----------------------------------------
D ----------------------------------------------------
A ----------------------------------------------------
E ----------------------------------------------------

E ---2-3-2----4-5-4--------4-5-4----
B -3--------5---------5-5-----------
G ----------------------------------
D ----------------------------------
A ----------------------------------
E ----------------------------------


BREAK:
A                 D
Ah, met her last night
 A             C
Can't sleep a wink
    G        D          A
Or seem to think about anything but her
 
A           C          G       D
I close my eyes and I seem to see
      A
Her standing with me
          C    D     E
Ah ah ah ahhh ahhh ooohhh


    E E A E    E E  E A E
E ----4-5-4---------4-5-4-
B --5----------5-5--------
G ------------------------
D ------------------------
A ------------------------
E ------------------------


VERSE: GUITAR 1
E      A          B
  She said she'd come 
E            A
  Be here tomorrow
E           D     E   E
 What can I do today

GUITAR 2: 
(PLAYS THIS DURING THE VERSE)

E ---4-5-4--------------4-5-4-----9-10-9-----4-5-4----
B -5----------4-5-4---5--------10----------5----------
G ----------4-----------------------------------------
D ----------------------------------------------------
A ----------------------------------------------------
E ----------------------------------------------------

E ---2-3-2----4-5-4--------4-5-4----
B -3--------5---------5-5-----------
G ----------------------------------
D ----------------------------------
A ----------------------------------
E ----------------------------------


BREAK:
A              D
Ah, I sit and wait
   A      C        G    D
Tomorrow seems so far away
     A
And yet so very near

A           C        G        D
I hope and pray she won't forget
      A
And leave me standing here
          C    D     E
Ah ah ah ahhh ahhh ooohhh


INSTRUMENTAL:

GUITAR 1:
E  B  E  A  E  D  E  E

GUITAR 2: SOLO
Thanks to ayreon77 for tabbing out this solo part:
                                     
e|---------|------7--|-9\11--9-7h9--|
B|--5-7-9--|--5-7----|--------------|
G|---------|---------|--------------|
D|---------|---------|--------------|
A|---------|---------|--------------|
E|---------|---------|--------------|


e|--------8-------|--------5-----|----------8--------|
B|----10----10----|------5---5---|-------10----10----|
G|-10----------10-|----6-------6-|----10----------10-|
D|----------------|--7-----------|--8----------------|
A|----------------|--------------|-------------------|
E|----------------|--------------|-------------------|


e|------------------|----------|----------|----------|---------|
B|---s--------8-10--|----8-10--|----8-10--|----8-10--|---------|
G|--9\12---10-------|-10-------|-10-------|-10-------|--9-8-7--|
D|------------------|----------|----------|----------|-10-9-8--|
A|------------------|----------|----------|----------|---------|
E|------------------|----------|----------|----------|---------|


BREAK:
A              D
Ah, What can I do
     A         C      G       D
The time goes slowly when I know
     A
She won't be here today

A       C        G         D
I must think of something new
    A
To pass the time away
A         C    D    E
Ah ah ah ahhh ahhh ooohhh

    E E A E
E ----4-5-4--
B --5--------
G -----------
D -----------
A -----------
E -----------

A         C    D    E
Ah ah ah ahhh ahhh ooohhh

    E E A E   A
E ----4-5-4---0--
B --5---------2--
G ------------2--
D ------------2--
A ------------0--
E ------------0--


OUTRO:
N.C.       C
What can I do 

     D  E E A E
  E ------4-5-4--
  B ----5--------
  G -------------
  D -------------
  A -------------
  E -------------
    To-day


======================= NO CAPO ========================


SONG:   WHAT CAN I DO TODAY
ARTIST: THE SWINGING BLUE JEANS
TAB BY: DON CZARSKI
EMAIL:  GUITARZAN7@HOTMAIL.COM


               WHAT CAN I DO TODAY
             THE SWINGING BLUE JEANS


INTRO:

One, two, three, four
 
    G G C G    F F Bb F   G G C G   G G  G C G

E ----7-8-7------5-6-5------7-8-7--------7-8-7---
B --8----------6----------8----------8-8---------
G -----------------------------------------------
D -----------------------------------------------
A -----------------------------------------------
E -----------------------------------------------


VERSE: GUITAR 1
G      C          D   
  She said she'd come
G            C      
  Be here tomorrow
G           F     G   G
 What can I do today


GUITAR 2: 
(PLAYS THIS DURING THE VERSE)

E ---7-8-7----2-3-2----7-8-7-----12-13-12---7-8-7----
B -8--------3--------8--------13-----------8---------
G ---------------------------------------------------
D ---------------------------------------------------
A ---------------------------------------------------
E ---------------------------------------------------

E ---5-6-5----7-8-7-------7-8-7----
B -6--------8--------8-8-----------
G ---------------------------------
D ---------------------------------
A ---------------------------------
E ---------------------------------


BREAK:
C                 F
Ah, met her last night
 C             Eb
Can't sleep a wink
    Bb       F          C
Or seem to think about anything but her
 
C           Eb         Bb      F
I close my eyes and I seem to see
      C
Her standing with me
          Eb   F     G      
Ah ah ah ahhh ahhh ooohhh


    G G C G    G G  G C G
E ----7-8-7---------7-8-7--
B --8----------8-8--------
G ------------------------
D ------------------------
A ------------------------
E ------------------------


VERSE: GUITAR 1
G      C          D   
  She said she'd come 
G            C         
  Be here tomorrow
G           F     G   G
 What can I do today

GUITAR 2: 
(PLAYS THIS DURING THE VERSE)

E ---7-8-7----2-3-2----7-8-7-----12-13-12---7-8-7----
B -8--------3--------8--------13-----------8---------
G ---------------------------------------------------
D ---------------------------------------------------
A ---------------------------------------------------
E ---------------------------------------------------

E ---5-6-5----7-8-7-------7-8-7----
B -6--------8--------8-8-----------
G ---------------------------------
D ---------------------------------
A ---------------------------------
E ---------------------------------


BREAK:
C              F
Ah, I sit and wait
   C      Eb       Bb   F
Tomorrow seems so far away
     C
And yet so very near

C           Eb       Bb       F
I hope and pray she won't forget
      C
And leave me standing here
          Eb   F     G
Ah ah ah ahhh ahhh ooohhh


INSTRUMENTAL:

GUITAR 1:
E  B  E  A  E  D  E  E

GUITAR 2: SOLO
Thanks to ayreon77 for tabbing out this solo part:
                                     
e|---------|------10-|-12\14--12-10h12-|
B|-8-10-12-|-8-10----|-----------------|
G|---------|---------|-----------------|
D|---------|---------|-----------------|
A|---------|---------|-----------------|
E|---------|---------|-----------------|


e|-------11-------|--------8-----|----------11-------|
B|----13----13----|------8---8---|-------13----13----|
G|-13----------13-|----9-------9-|----13----------13-|
D|----------------|-10-----------|-11----------------|
A|----------------|--------------|-------------------|
E|----------------|--------------|-------------------|


e|------------------|----------|----------|----------|----------|
B|---s--------11-13-|----11-13-|----11-13-|----11-13-|----------|
G|-12\15---13-------|-13-------|-13-------|-13-------|-12-11-10-|
D|------------------|----------|----------|----------|-13-12-11-|
A|------------------|----------|----------|----------|----------|
E|------------------|----------|----------|----------|----------|

BREAK:
C              F
Ah, What can I do
     C         Eb     Bb      F
The time goes slowly when I know
     C
She won't be here today

C       Eb       Bb        F
I must think of something new
    C
To pass the time away
C         Eb   F    G
Ah ah ah ahhh ahhh ooohhh

    G G C G
E ----7-8-7--
B --8--------
G -----------
D -----------
A -----------
E -----------

C         Eb   F    G     
Ah ah ah ahhh ahhh ooohhh

    G G C G   C
E ----7-8-7---3--
B --8---------5--
G ------------5--
D ------------5--
A ------------3--
E ------------3--


OUTRO:
N.C.       Eb 
What can I do 

     F  G G C G   
  E ------7-8-7--
  B ----8--------
  G -------------
  D -------------
  A -------------
  E -------------
    To-day
Добавлено: 31.08.2015
Другие материалы по этой песне:
  • Аккорды и текст

Страница создана 31.08.2015
http://primanota.ru/swinging-blue-jeans/what-can-i-do-today-chords.htm
Привет, Гость.
Предлагаем пройти революционный курс по гитаре.
Подарок от PrimaNota.Ru, забирай!