PrimaNota.ru - самый крупный в мире бесплатный архив песенных текстов, аккордов, табулатур и нот


Swinging Blue Jeans - Tutti Frutti - текст песни, бас-таба, видео

Регистрация Запомнить меня
Войти через:  Facebook Google Twitter Vk Yandex Mail.ru

Swinging Blue Jeans - Tutti Frutti - текст песни, бас-таба, видео

Печатать
Просмотров: 452
Tutti Frutti
The Swinging Blue Jeans
Written by Richard Wayne Penniman, Dorothy LaBostrie and Robert Blackwell; 
released on the album "Blue Jeans A'Swinging".

Intro:
G|------ ------ ------ ------|------ ------ ------ ------|
D|---------------------------|---------------------------|
A|---------------------------|---------------------------|
E|---------------------------|---------------------------|
A-wop -  bop-a- loo-mop  -  a-lomp - bom -  bom,   Tutti


G|------ ------ ------ ------|------ ------ ------ ------|
D|---------------------------|---------------------------|
A|5--------------------------|5--------------------------|
E|--------------5------------|--------------5------------|
  Frutti,              oh,    rutti,               Tutti


G|------ ------ ------ ------|------ ------ ------ ------|
D|---------------------------|---------------------4-----|
A|5--------------------------|5------5------7------------|
E|--------------5------------|---------------------------|
  Frutti,              oh,    rutti,               Tutti


G|------ ------ ------ ------|------ ------ ------ ------|
D|5----------5---------------|5----------5---------------|
A|--------------5------------|--------------5------------|
E|---------------------------|---------------------------|
  Frutti,              oh,    rutti,               Tutti


G|------ ------ ------ ------|------ ------ ------ ------|
D|---------------------------|---------------------------|
A|5--------------------------|5--------------------------|
E|--------------5------------|--------------5------------|
  Frutti,           woah,     rutti,               Tutti


G|------ ------ ------ ------|------ ------ ------ ------|
D|7----------7---------------|5----------5---------------|
A|--------------7------------|--------------5------------|
E|---------------------------|---------------------------|
  Frutti,           oh,       rutti,            hey,


G|------ ------ ------ ------|------ ------ ------ ------|
D|---------------------------|---------------------------|
A|5--------------------------|---------------------------|
E|---------------------------|---------------------------|
  wop -  bop-a- loo-mop  -  a-lomp - bom -  bom. I got a

Verse:
G|------ ------ ------ ------|------ ------ ------ ------|
D|----7--4-------------------|----7--4-------------------|
A|-----------7--5------------|-----------7--5------------|
E|---------------------------|---------------------------|
  girl                 named  Sue,                     she


G|------ ------ ------ ------|------ ------ ------ ------|
D|---------------------------|---------------------4-----|
A|5--------------------------|5------5------7------------|
E|--------------5------------|---------------------------|
  knows  just   what   to  do,           I      got a  girl


G|------ ------ ------ ------|------ ------ ------ ------|
D|5--------------------------|5----------5--4------------|
A|--------------5------------|---------------------7-----|
E|---------------------------|---------------------------|
                       named  Sue,              well,  she


G|------ ------ ------ ------|------ ------ ------ ------|
D|---------------------------|---------------------------|
A|5--------------------------|5--------------------------|
E|--------------5------------|--------------5------------|
  knows  just   what   to  do.                  Ah,    she


G|------ ------ ------ ------|------ ------ ------ ------|
D|---------------------10\---|---------------------10\---|
A|5--------------------------|5--------------------------|
E|---------------------------|---------------------------|
  knows  I      love her,            yes indeed,


G|------ ------ ------ ------|------ ------ ------ ------|
D|---------------------------|---------------------4-----|
A|5--------------------------|-------5------7------------|
E|---------------------------|---------------------------|
      she don't know   what to do    to  me,       Tutti


G|------ ------ ------ ------|------ ------ ------ ------|
D|5--------------------------|5----------5--4------------|
A|--------------5------------|---------------------7-----|
E|---------------------------|---------------------------|
  Frutti,              oh,    rutti,               Tutti


G|------ ------ ------ ------|------ ------ ------ ------|
D|---------------------------|---------------------------|
A|5--------------------------|5--------------------------|
E|--------------5------------|--------------5------------|
  Frutti,              oh,    rutti,               Tutti


G|------ ------ ------ ------|------ ------ ------ ------|
D|7--------------------------|5----------5---------------|
A|--------------7------------|--------------5------------|
E|---------------------------|---------------------------|
  Frutti,           oh,       rutti,            hey,


G|------ ------ ------ ------|------ ------ ------ ------|
D|---------------------------|---------------------------|
A|5--------------------------|---------------------------|
E|---------------------------|---------------------------|
  wop -  bop-a- loo-mop  -  a-lomp - bom -  bom. I got a

Verse:
G|------ ------ ------ ------|------ ------ ------ ------|
D|----7--4-------------------|----7--4-------------------|
A|-----------7--5------------|-----------7--5------------|
E|---------------------------|---------------------------|
  girl                 named  Daisy,                   she


G|------ ------ ------ ------|------ ------ ------ ------|
D|---------------------------|---------------------4-----|
A|5--------------------------|5------5------7------------|
E|--------------5------------|---------------------------|
  al  -  most   drives me  cra -  zy,    I     got a   girl,


G|------ ------ ------ ------|------ ------ ------ ------|
D|5--------------------------|5----------5--4------------|
A|--------------5------------|---------------------7-----|
E|---------------------------|---------------------------|
                   her name is Daisy,           well,  she


G|------ ------ ------ ------|------ ------ ------ ------|
D|--------------7------------|---------------------------|
A|5--------------------------|5--------------------------|
E|---------------------------|--------------5------------|
  al  -  most   drives me  cra -  zy.           Ah,    she


G|------ ------ ------ ------|------ ------ ------ ------|
D|---------------------10\---|---------------------10\---|
A|5--------------------------|5--------------------------|
E|---------------------------|---------------------------|
  know   I      love her,            yes indeed,


G|------ ------ ------ ------|------ ------ ------ ------|
D|---------------------------|---------------------4-----|
A|5--------------------------|-------5------7------------|
E|---------------------------|---------------------------|
      she don't know   what to do    to  me,       Tutti


G|------ ------ ------ ------|------ ------ ------ ------|
D|5--------------------------|5----------5--4------------|
A|--------------5------------|---------------------7-----|
E|---------------------------|---------------------------|
  Frutti,              oh,    rutti,               Tutti


G|------ ------ ------ ------|------ ------ ------ ------|
D|---------------------------|---------------------------|
A|5--------------------------|5--------------------------|
E|--------------5------------|--------------5------------|
  Frutti,              woah,  rutti,               Tutti


G|------ ------ ------ ------|------ ------ ------ ------|
D|7--------------------------|5--------------------------|
A|--------------7------------|--------------5------------|
E|---------------------------|---------------------------|
  Frutti,           oh,       rutti,            hey,


G|------ ------ ------ ------|------ ------ ------ ------|
D|---------------------------|---------------------------|
A|5--------------------------|---------------------------|
E|---------------------------|---------------------------|
  wop -  bop-a- loo-mop  -  a-lomp - bom...

Break (solo):
G|------ ------ ------ ------|------ ------ ------ ------|
D|-------4------5------6-----|7------5------4------------|
A|5--------------------------|---------------------7-----|
E|---------------------------|---------------------------|



G|------ 7----- 7----- 4-----|------ ------ ------ ------|
D|---------------------------|7------5------4------7\----|
A|5--------------------------|---------------------------|
E|---------------------------|---------------------------|



G|------ ------ ------ ------|------ ------ ------ ------|
D|---------------------2-----|3------2-------------------|
A|-------2------5------------|--------------5------2-----|
E|3--------------------------|---------------------------|



G|------ ------ ------ ------|------ ------ ------ ------|
D|---------------------------|--------------4------5-----|
A|5--------------------4-----|5------7-------------------|
E|-------5------7------------|---------------------------|



G|------ ------ ------ ------|------ ------ ------ ------|
D|7------5------4------7-----|5------4-------------------|
A|---------------------------|--------------7------4-----|
E|---------------------------|---------------------------|



G|------ ------ ------ ------|------ ------ ------ ------|
D|-------4------5------6-----|7------5------4------------|
A|5--------------------------|---------------------7-----|
E|---------------------------|---------------------------|
                                                I  got a

Verse:
G|------ ------ ------ ------|------ ------ ------ ------|
D|----7--4-------------------|----7--4-------------------|
A|--------------5------------|-----------7--5------------|
E|---------------------------|---------------------------|
  girl                 named  Sue,                     she


G|------ ------ ------ ------|------ ------ ------ ------|
D|---------------------------|---------------------4-----|
A|5--------------------------|5------5------7------------|
E|--------------5------------|---------------------------|
  knows  just   what   to  do,           I      got a  girl,


G|------ ------ ------ ------|------ ------ ------ ------|
D|5--------------------------|5----------5--4------------|
A|--------------5------------|---------------------7-----|
E|---------------------------|---------------------------|
                    her name's Sue,             well,  she


G|------ ------ ------ ------|------ ------ ------ ------|
D|--------------7------------|---------------------------|
A|5--------------------------|5--------------------------|
E|---------------------------|--------------5------------|
  knows  just   what   to  do.                  Well   she
                                                   now,

G|------ ------ ------ ------|------ ------ ------ ------|
D|---------------------10\---|---------------------10\---|
A|5--------------------------|5--------------------------|
E|---------------------------|---------------------------|
  knows  I      love   her,   yes    in- deed,


G|------ ------ ------ ------|------ ------ ------ ------|
D|---------------------------|---------------------4-----|
A|5--------------------------|-------5------7------------|
E|---------------------------|---------------------------|
      she don't know  what to do     to  me.       Tutti


G|------ ------ ------ ------|------ ------ ------ ------|
D|5----------5---------------|5----------5--4------------|
A|--------------5------------|---------------------7-----|
E|---------------------------|---------------------------|
  Frutti,              oh,    rutti,               Tutti


G|------ ------ ------ ------|------ ------ ------ ------|
D|---------------------------|---------------------------|
A|5--------------------------|5--------------------------|
E|--------------5------------|--------------5------------|
  Frutti,           woah,     rutti,               Tutti


G|------ ------ ------ ------|------ ------ ------ ------|
D|7--------------------------|5----------5---------------|
A|--------------7------------|--------------5------------|
E|---------------------------|---------------------------|
  Frutti,           oh,       rutti,            hey,


G|------ ------ ------ ------|------ ------ ------ ------|
D|---------------------------|-------7\------------------|
A|5--------------------------|--------------5------------|
E|---------------------------|---------------------------|
  wop -  bop-a- loo-mop  -  a-lomp - bam -  boom.

Please e-mail me for any corrections, or write a comment.
Добавлено: 07.06.2013
Другие материалы по этой песне:
  • Аккорды и текст

Страница создана 17.03.2012
http://primanota.ru/swinging-blue-jeans/tutti-frutti-chords.htm
Привет, Гость.
Предлагаем пройти революционный курс по гитаре.
Подарок от PrimaNota.Ru, забирай!