PrimaNota.ru - самый крупный в мире бесплатный архив песенных текстов, аккордов, табулатур и нот


Swingin Utters - This Bastard's Life - текст песни, таба, видео

Регистрация Запомнить меня
Войти через:  Facebook Google Twitter Vk Yandex Mail.ru

Swingin Utters - This Bastard's Life - текст песни, таба, видео

Печатать
Просмотров: 83
-------------------------------------------------------------------------------
                     THIS BASTARD'S LIFE - Swingin' Utters
-------------------------------------------------------------------------------
Tabbed by: Take 1ne

Tuning: Standard (EADGBe)

Verse 1:

e|-----------------------------x---4-------x---4-------4---x---x---|
B|-4-------4-------x---4-------x---7-------x---7-------7---x---x---|
G|-6-------6-------x---6-------x---5-------x---5-------5---x---x---|
D|-5-------5-------x---5-------x---6-------x---6-------6---x---x---|
A|-6-------6-------x---6-------x---4-------x---4-------4---x---x---|
E|-4-------4-------x---4-------x---4-------x---4-------4---x---x---|

e|-6-------6-------x---6-------x---4-------x---4-------4---x---x---|
B|-9-------9-------x---9-------x---7-------x---7-------7---x---x---|
G|-7-------7-------x---7-------x---5-------x---5-------5---x---x---|
D|-8-------8-------x---8-------x---6-------x---6-------6---x---x---|
A|-6-------6-------x---6-------x---4-------x---4-------4---x---x---|
E|-6-------6-------x---6-------x---4-------x---4-------4---x---x---|

x6


Chorus 1:

e|-----------------------------------------------------------------|
B|-1-------1-------x---1-------x---3-------x---4-------3---x---x---|
G|-2-------2-------x---2-------x---3-------x---3-------3---x---x---|
D|-3-------3-------x---3-------x---3-------x---3-------3---x---x---|
A|-----------------------------------------------------------------|
E|-----------------------------------------------------------------|

e|-----------------------------------------------------------------|
B|-1-------x---2-------1---x---x---3-------x---4-------3---x---x---|
G|-1-------x---1-------1---x---x---3-------x---3-------3---x---x---|
D|-1-------x---1-------1---x---x---3-------x---3-------3---x---x---|
A|-----------------------------------------------------------------|
E|-----------------------------------------------------------------|

x3

e|-----------------------------------------------------------------|
B|-1-------1-------x---1-------x---3-------x---4-------3---x---x---|
G|-2-------2-------x---2-------x---3-------x---3-------3---x---x---|
D|-3-------3-------x---3-------x---3-------x---3-------3---x---x---|
A|-----------------------------------------------------------------|
E|-----------------------------------------------------------------|

e|-----------------------------------------------------------------|
B|-2-------x---1-------1---1---1---2-------x---1-------1---x---x---|
G|-1-------x---1-------1---1---1---1-------x---1-------1---x---x---|
D|-1-------x---1-------1---1---1---1-------x---1-------1---x---x---|
A|-----------------------------------------------------------------|
E|-----------------------------------------------------------------|

e|-----------------------------------------------------------------|
B|-3-------3-------3---3---3---3---4-------3---3-------3---3---3---|
G|-3-------3-------3---3---3---3---3-------3---3-------3---3---3---|
D|-3-------3-------3---3---3---3---3-------3---3-------3---3---3---|
A|-----------------------------------------------------------------|
E|-----------------------------------------------------------------|

e|---------------------------------4---4---4---4---4---4---4---4---|
B|-4-------3---3-------3---3---3---3---3---3---3---3---3---3---3---|
G|-3-------3---3-------3---3---3---3---3---3---3---3---3---3---3---|
D|-3-------3---3-------3---3---3---3---3---3---3---3---3---3---3---|
A|-----------------------------------------------------------------|
E|-----------------------------------------------------------------|


Verse 2: (Guitar plays nothing.)


Bridge 1:

e|-9-------9-------9---9---9---9---9-------9---9-------9---x---x---|
B|-11------11------11--11--11--11--9-------9---9-------9---x---x---|
G|-11------11------11--11--11--11--10------10--10------10--x---x---|
D|-11------11------11--11--11--11--11------11--11------11--x---x---|
A|-9-------9-------9---9---9---9---11------11--11------11--x---x---|
E|-9-------9-------9---9---9---9---9-------9---9-------9---x---x---|

e|-4-------4-------4---4---4---4---6-------6---6-------6---x---x---|
B|-7-------7-------7---7---7---7---6-------6---6-------6---x---x---|
G|-5-------5-------5---5---5---5---7-------7---7-------7---x---x---|
D|-6-------6-------6---6---6---6---8-------8---8-------8---x---x---|
A|-4-------4-------4---4---4---4---8-------8---8-------8---x---x---|
E|-4-------4-------4---4---4---4---6-------6---6-------6---x---x---|

e|-9-------9-------9---9---9---9---6-------6---6-------6---x---x---|
B|-11------11------11--11--11--11--8-------8---8-------8---x---x---|
G|-11------11------11--11--11--11--8-------8---8-------8---x---x---|
D|-11------11------11--11--11--11--8-------8---8-------8---x---x---|
A|-9-------9-------9---9---9---9---6-------6---6-------6---x---x---|
E|-9-------9-------9---9---9---9---6-------6---6-------6---x---x---|

e|-5-------5-------5---5---5---5---5-------5---5-------5---x---x---|
B|-7-------7-------7---7---7---7---7-------7---7-------7---x---x---|
G|-7-------7-------7---7---7---7---7-------7---7-------7---x---x---|
D|-7-------7-------7---7---7---7---7-------7---7-------7---x---x---|
A|-5-------5-------5---5---5---5---5-------5---5-------5---x---x---|
E|-5-------5-------5---5---5---5---5-------5---5-------5---x---x---|

x2

e|-4-------4-------4---4---4---4---4-------4---4-------4---4---4---|
B|-6-------6-------6---6---6---6---6-------6---6-------6---6---6---|
G|-6-------6-------6---6---6---6---6-------6---6-------6---6---6---|
D|-6-------6-------6---6---6---6---6-------6---6-------6---6---6---|
A|-4-------4-------4---4---4---4---4-------4---4-------4---4---4---|
E|-4-------4-------4---4---4---4---4-------4---4-------4---4---4---|

e|-4-------4---4-------4---4---4---4-------4---4-------4---x---x---|
B|-6-------6---6-------6---6---6---6-------6---6-------6---x---x---|
G|-6-------6---6-------6---6---6---6-------6---6-------6---x---x---|
D|-6-------6---6-------6---6---6---6-------6---6-------6---x---x---|
A|-4-------4---4-------4---4---4---4-------4---4-------4---x---x---|
E|-4-------4---4-------4---4---4---4-------4---4-------4---x---x---|


Pre-Verse 3:

e|-x-------4-------x---4-------x---x-------------------4-----------|
B|-x-------4-------x---4-------x---x-------------------7-----------|
G|-x-------6-------x---6-------x---x-------5---5-------5---5---7---|
D|-----------------------------------------------------------------|
A|-----------------------------------------------------------------|
E|-----------------------------------------------------------------|

e|---------4-------x---4-------x-----------4---4-------4---x---x---|
B|---------6-------x---6-------x-----------7---7-------7---x---x---|
G|-7-------7-------x---7-------x---5-------5---5-------5---x---x---|
D|-----------------------------------------------------------------|
A|-----------------------------------------------------------------|
E|-----------------------------------------------------------------|

e|-----------------------------x---4-------x---4-------4---x---x---|
B|-4-------4-------x---4-------x---7-------x---7-------7---x---x---|
G|-6-------6-------x---6-------x---5-------x---5-------5---x---x---|
D|-5-------5-------x---5-------x---6-------x---6-------6---x---x---|
A|-6-------6-------x---6-------x---4-------x---4-------4---x---x---|
E|-4-------4-------x---4-------x---4-------x---4-------4---x---x---|

e|-6-------6-------x---6-------x---4-------x---4-------4---x---x---|
B|-9-------9-------x---9-------x---7-------x---7-------7---x---x---|
G|-7-------7-------x---7-------x---5-------x---5-------5---x---x---|
D|-8-------8-------x---8-------x---6-------x---6-------6---x---x---|
A|-6-------6-------x---6-------x---4-------x---4-------4---x---x---|
E|-6-------6-------x---6-------x---4-------x---4-------4---x---x---|


Verse 3:

e|-----------------------------x---4-------x---4-------4---x-------|
B|-x-------4-------x---4-------x---7-------x---7-------7---x-------|
G|-x-------6-------x---6-------x---5-------x---5-------5---x---5-/-|
D|-x-------5-------x---5-------x---6-------x---6-------6---x---6-/-|
A|-x-------6-------x---6-------x---4-------x---4-------4---x---4-/-|
E|-x-------4-------x---4-------x---4-------x---4-------4---x---4-/-|

e|---------6-------x---6-------x---4-------x---4-------4---x---x---|
B|---------9-------x---9-------x---7-------x---7-------7---x---x---|
G|-7-------7-------x---7-------x---5-------x---5-------5---x---x---|
D|-8-------8-------x---8-------x---6-------x---6-------6---x---x---|
A|-6-------6-------x---6-------x---4-------x---4-------4---x---x---|
E|-6-------6-------x---6-------x---4-------x---4-------4---x---x---|

x4

Chorus 2:

e|-----------------------------------------------------------------|
B|-1-------1-------x---1-------x---3-------x---4-------3---x---x---|
G|-2-------2-------x---2-------x---3-------x---3-------3---x---x---|
D|-3-------3-------x---3-------x---3-------x---3-------3---x---x---|
A|-----------------------------------------------------------------|
E|-----------------------------------------------------------------|

e|-----------------------------------------------------------------|
B|-1-------x---2-------1---x---x---3-------x---4-------3---x---x---|
G|-1-------x---1-------1---x---x---3-------x---3-------3---x---x---|
D|-1-------x---1-------1---x---x---3-------x---3-------3---x---x---|
A|-----------------------------------------------------------------|
E|-----------------------------------------------------------------|

x3

e|-----------------------------------------------------------------|
B|-1-------1-------x---1-------x---3-------x---4-------3---x---x---|
G|-2-------2-------x---2-------x---3-------x---3-------3---x---x---|
D|-3-------3-------x---3-------x---3-------x---3-------3---x---x---|
A|-----------------------------------------------------------------|
E|-----------------------------------------------------------------|

e|-----------------------------------------------------------------|
B|-2-------x---1-------1---1---1---2-------x---1-------1---x---x---|
G|-1-------x---1-------1---1---1---1-------x---1-------1---x---x---|
D|-1-------x---1-------1---1---1---1-------x---1-------1---x---x---|
A|-----------------------------------------------------------------|
E|-----------------------------------------------------------------|

e|-----------------------------------------------------------------|
B|-4-------3---3-------3---3---3---4-------3---3-------3---3---3---|
G|-3-------3---3-------3---3---3---3-------3---3-------3---3---3---|
D|-3-------3---3-------3---3---3---3-------3---3-------3---3---3---|
A|-----------------------------------------------------------------|
E|-----------------------------------------------------------------|

e|-----------------------------4---4---4---4---4---4---4---4---4---|
B|-4-------3---3-------3---3---3---3---3---3---3---3---3---3---3---|
G|-3-------3---3-------3---3---3---3---3---3---3---3---3---3---3---|
D|-3-------3---3-------3---3---3---3---3---3---3---3---3---3---3---|
A|-----------------------------------------------------------------|
E|-----------------------------------------------------------------|

Bridge 2/Ending:

e|-9-------9-------9---9---9---9---9-------9---9-------9---x---x---|
B|-11------11------11--11--11--11--9-------9---9-------9---x---x---|
G|-11------11------11--11--11--11--10------10--10------10--x---x---|
D|-11------11------11--11--11--11--11------11--11------11--x---x---|
A|-9-------9-------9---9---9---9---11------11--11------11--x---x---|
E|-9-------9-------9---9---9---9---9-------9---9-------9---x---x---|

e|-4-------4-------4---4---4---4---6-------6---6-------6---x---x---|
B|-7-------7-------7---7---7---7---6-------6---6-------6---x---x---|
G|-5-------5-------5---5---5---5---7-------7---7-------7---x---x---|
D|-6-------6-------6---6---6---6---8-------8---8-------8---x---x---|
A|-4-------4-------4---4---4---4---8-------8---8-------8---x---x---|
E|-4-------4-------4---4---4---4---6-------6---6-------6---x---x---|

e|-9-------9-------9---9---9---9---6-------6---6-------6---x---x---|
B|-11------11------11--11--11--11--8-------8---8-------8---x---x---|
G|-11------11------11--11--11--11--8-------8---8-------8---x---x---|
D|-11------11------11--11--11--11--8-------8---8-------8---x---x---|
A|-9-------9-------9---9---9---9---6-------6---6-------6---x---x---|
E|-9-------9-------9---9---9---9---6-------6---6-------6---x---x---|

e|-5-------5-------5---5---5---5---5-------5---5-------5---x---x---|
B|-7-------7-------7---7---7---7---7-------7---7-------7---x---x---|
G|-7-------7-------7---7---7---7---7-------7---7-------7---x---x---|
D|-7-------7-------7---7---7---7---7-------7---7-------7---x---x---|
A|-5-------5-------5---5---5---5---5-------5---5-------5---x---x---|
E|-5-------5-------5---5---5---5---5-------5---5-------5---x---x---|

x3

e|-9-------9-------9---9---9---9---9-------9---9-------9---x---x---|
B|-11------11------11--11--11--11--9-------9---9-------9---x---x---|
G|-11------11------11--11--11--11--10------10--10------10--x---x---|
D|-11------11------11--11--11--11--11------11--11------11--x---x---|
A|-9-------9-------9---9---9---9---11------11--11------11--x---x---|
E|-9-------9-------9---9---9---9---9-------9---9-------9---x---x---|

e|-4-------4-------4---4---4---4---6-------6---6-------6---x---x---|
B|-7-------7-------7---7---7---7---6-------6---6-------6---x---x---|
G|-5-------5-------5---5---5---5---7-------7---7-------7---x---x---|
D|-6-------6-------6---6---6---6---8-------8---8-------8---x---x---|
A|-4-------4-------4---4---4---4---8-------8---8-------8---x---x---|
E|-4-------4-------4---4---4---4---6-------6---6-------6---x---x---|

e|-9-------9-------9---9---9---9---6-------6---6-------6---x---x---|
B|-11------11------11--11--11--11--8-------8---8-------8---x---x---|
G|-11------11------11--11--11--11--8-------8---8-------8---x---x---|
D|-11------11------11--11--11--11--8-------8---8-------8---x---x---|
A|-9-------9-------9---9---9---9---6-------6---6-------6---x---x---|
E|-9-------9-------9---9---9---9---6-------6---6-------6---x---x---|

e|-5---------------------------------------------------------------|
B|-7---------------------------------------------------------------|
G|-7---------------------------------------------------------------|
D|-7---------------------------------------------------------------|
A|-5---------------------------------------------------------------|
E|-5---------------------------------------------------------------|

************************************

| /   slide up
| \   slide down
| h   hammer-on
| p   pull-off
| ~   vibrato
| +   harmonic
| x   Mute note
| b   Bend
| pb  Pre-bend
| br  Bend release
| pbr Pre-bend release
| brb Bend release bend

************************************
Добавлено: 11.08.2013
Другие материалы по этой песне:
  • Аккорды и текст

Страница создана 10.04.2012
http://primanota.ru/swingin-utters/this-bastards-life-chords.htm
Привет, Гость.
Предлагаем пройти революционный курс по гитаре.
Подарок от PrimaNota.Ru, забирай!