PrimaNota.ru - самый крупный в мире бесплатный архив песенных текстов, аккордов, табулатур и нот


Swingin Utters - Tell Me Lies - текст песни, таба, видео

Регистрация Запомнить меня
Войти через:  Facebook Google Twitter Vk Yandex Mail.ru

Swingin Utters - Tell Me Lies - текст песни, таба, видео

Печатать
Просмотров: 83
Уроки эстрадного вокала в Санкт-Петербурге
-----------------------------------------------------------------------------
Swingin' Utters-Tell Me Lies
-----------------------------------------------------------------------------
Tabbed by: Dr.Appetite
E-mail:drappetite@aim.com

Tuning: Standard (EADGBe)

Intro pt 1:
Guitar 1:
e|---x--x--5--x--x--5--x--x--5--x--x--5-------------------------------------|
B|---x--x--7--x--x--5--x--x--5--x--x--5-------------------------------------|
G|---x--x--7--x--x--6--x--x--4--x--x--6-------------------------------------|
D|---x--x--7--x--x--7--x--x--5--x--x--7-------------------------------------|
A|---x--x--5--x--x--7--x--x--5--x--x--7-------------------------------------|
E|---x--x-----x--x--5--x--x--3--x--x--5-------------------------------------|X4

Intro pt 2
Guitar 1:
e|---5----------------------------------------------------------------------|
B|---7----------------------------------------------------------------------|
G|---7----14--12------------------------------------------------------------|
D|---7----14--12------------------------------------------------------------|
A|---5----12--10------------------------------------------------------------|
E|--------------------------------------------------------------------------|X4

Guitar 2:
e|--------------------------------------------------------------------------|
B|--------------------------------------------------------------------------|
G|---7----------------------------------------------------------------------|
D|---7----7--5--------------------------------------------------------------|
A|---5----7--5--------------------------------------------------------------|
E|--------5--3--------------------------------------------------------------|X4

Verse:1
Guitar 1&2
e|---5----5----5----7----5----5----3----------------------------------------|
B|---7----5----7----7----5----5----3----------------------------------------|
G|---7----6----7----7----7----6----4----------------------------------------|
D|---7----7----7----9----7----7----5----------------------------------------|
A|---5----7----5----9----5----7----5----------------------------------------|
E|--------5---------7---------5----3----------------------------------------|

Chorus:
Guitar 1&2 (Everyone keeps telling me…)
e|----5----5----5----3----3----5----5---------------------------------------|
B|----5----5----7----3----3----5----7---------------------------------------|
G|----4----6----7----4----4----6----7---------------------------------------|
D|----5----7----7----5----5----7----7---------------------------------------|
A|----5----7----5----5----5----7----5---------------------------------------|
E|----3----5---------3----3----5--------------------------------------------|

Intro pt 2
Guitar 1:Only
e|---5----------------------------------------------------------------------|
B|---7----------------------------------------------------------------------|
G|---7----14--12------------------------------------------------------------|
D|---7----14--12------------------------------------------------------------|
A|---5----12--10------------------------------------------------------------|
E|--------------------------------------------------------------------------|X2

Verse:2
Guitar 1&2
e|---5----5----5----7----5----5----3----------------------------------------|
B|---7----5----7----7----5----5----3----------------------------------------|
G|---7----6----7----7----7----6----4----------------------------------------|
D|---7----7----7----9----7----7----5----------------------------------------|
A|---5----7----5----9----5----7----5----------------------------------------|
E|--------5---------7---------5----3----------------------------------------|

Chorus
Guitar 1&2 (Everyone keeps telling me…)
e|----5----5----5----3----3----5----5---------------------------------------|
B|----5----5----7----3----3----5----7---------------------------------------|
G|----4----6----7----4----4----6----7---------------------------------------|
D|----5----7----7----5----5----7----7---------------------------------------|
A|----5----7----5----5----5----7----5---------------------------------------|
E|----3----5---------3----3----5--------------------------------------------|

Solo:
Guitar 1
e|--------------------------------------------------------------------------|
B|--------------------------------------------------------------------------|
G|-----------7~9-10-9-7-9-7~9-10-9-7-9-7-9-10-9-7---7~7---------------------|
D|-------7-9h-------------------------------------9-----9-7-----------------|
A|----10----------------------------------------------------1010-9-7----7---|
E|-------------------------------------------------------------------10-----|


e|--------------------------------------------------------------------------|
B|----------------------------7-7-8~8-7---8-7----------------------7----8-7-|
G|------------------------7-9--9--------9-----9-7-9b-7~--7-9b7---7(7)-7(-7-)|
D|------------7-9-10-9-10------------------------------9b------9------------|
A|--9-7----10---------------------------------------------------------------|
E|------10~-----------------------------------------------------------------|

e|--------------------------------------------------------------------------|
B|-------------------------7------------------------------------------------|
G|------7-9b-7---6~7-9-7~9---9-7-6-----/10-9~-------------------------------|
D|----9b-------9-------------------9-7~-------------------------------------|
A|--------------------------------------------------------------------------|
E|--------------------------------------------------------------------------|

Guitar 2:
e|---5----5----5----7----5----5----3----3----5----5----3----3----5----5-----|
B|---7----5----7----7----5----5----3----3----5----7----3----3----5----7-----|
G|---7----6----7----7----7----6----4----4----6----7----4----4----6----7-----|
D|---7----7----7----9----7----7----5----5----7----7----5----5----7----7-----|
A|---5----7----5----9----5----7----5----5----7----5----5----5----7----5-----|
E|--------5---------7---------5----3----3----5---------3----3----5----------|

e|----7----5----7-----------------------------------------------------------|
B|----7----7----7-----------------------------------------------------------|
G|----7----7----7-----------------------------------------------------------|
D|----9----7----9----4----5----7--------------------------------------------|
A|----9----5----9----4----5----7--------------------------------------------|
E|----7---------7----2pm--3pm--5pm------------------------------------------|


Verse 3:
Guitar 1&2
e|----7----7----7----9-----7----7----7--------------------------------------|
B|----9----7----9----9-----9----7----7--------------------------------------|
G|----9----8----9----10----9----8----6--------------------------------------|
D|----9----9----9----11----9----9----7--------------------------------------|
A|----7----9----7----11----7----9----7--------------------------------------|
E|---------7---------9----------7----5--------------------------------------|

Last Chorus:
e|----5----7----7----5----5----7----7----5----7----7----9----5----7----7----|
B|----5----7----9----5----5----7----9----5----7----9----9----5----7----9----|
G|----6----8----9----6----6----6----9----6----8----9----9----6----8----9----|
D|----7----9----9----7----7----9----9----7----9----9----11---7----9----9----|
A|----7----9----7----7----7----9----7----7----9----7----11---7----9----7----|
E|----5----7---------5----5----7---------5----7---------9----5----7---------|

Outro:
Guitar 1
e|-------------------------/12-12~--12\-------------------------------------|
B|--------------------------------------------------------------------------|
G|----9-9~-----9~----9~-----------------------------------------------------|
D|--------------------------------------------------------------------------|
A|--------------------------------------------------------------------------|
E|--------------------------------------------------------------------------|


Guitar 2
e|----7-----7----5------|  |----7~--------------------|
B|----9-----7----5------|  |----9~--------------------|
G|----9-----8----6------|  |----9~--------------------|
D|----9-----9----7------|X4|----9~--------------------|
A|----7-----9----7------|  |----7~--------------------|
E|----------7----5------|  |--------------------------|



************************************

| /   slide up
| \   slide down
| h   hammer-on
| p   pull-off
| ~   vibrato
| +   harmonic
| x   Mute note
| b   Bend
| pb  Pre-bend
| br  Bend release
| pbr Pre-bend release
| brb Bend release bend

************************************
Добавлено: 16.11.2013
Другие материалы по этой песне:
  • Аккорды и текст

Страница создана 25.02.2012
http://primanota.ru/swingin-utters/tell-me-lies-chords.htm
Привет, Гость.
Предлагаем пройти революционный курс по гитаре.
Подарок от PrimaNota.Ru, забирай!