PrimaNota.ru - самый крупный в мире бесплатный архив песенных текстов, аккордов, табулатур и нот


Swingin Utters - Not Your Savior - аккорды и текст, видео

Регистрация Запомнить меня
Войти через:  Facebook Google Twitter Vk Yandex Mail.ru

Swingin Utters - Not Your Savior - аккорды и текст, видео

Печатать
Просмотров: 68
Not Your Savior
Swingin Utters
Tabbed by: JimBlenderBR



** From the album - The songs of Tony Sly - A Tribute




- Enjoy!





- Intro: 

    G                     Bm                    C                     D
e|-----------------------------------------------------------------------------------------|
B|-----------------------------------------------------------------------------------------|
G|-777-----777-----77----777-----777-----77----555-----555-----55----777-----777-----77----|
D|-----555-----555----55-----444-----444----44-----222-----222----22-----444-----444----44-|
A|-----------------------------------------------------------------------------------------|
E|-----------------------------------------------------------------------------------------|

    G                     Bm                    C                     D                     G   
e|-----------------------------------------------------------------------------------------|
B|-----------------------------------------------------------------------------------------|
G|-777-----777-----77----777-----777-----77----555-----555-----55----777-----777-----77----|
D|-----555-----555----55-----444-----444----44-----222-----222----22-----444-----444----44-|
A|-----------------------------------------------------------------------------------------|
E|-----------------------------------------------------------------------------------------|



- Verse 1:

       Am        G G/F#                    G          G/F#   Em 
Unlucky seventeen, already handed plans for the future
D       C                    D                       G   
Glamour obsessed, told how to dress, and shown how to think
            Am         G G/F#                      G        G/F#   Em     
And I don't have a job, but I can show you how to be a slob
D       C                 D 
So many days, wasted and glazed
            Em             C                   
Sometimes I laugh aloud as I think about,
   G                              A
You asking me "Please can you help?"
           C        D
Can't help my self



- Chorus:

                  G                  D                 
I'm not your savior, I'm not who you want me to be
  C                                  D                         G  
A cowardly mistake I've made so many times before, refusing to break
              Bm                        C                     Cm    
Cut my losses ties them with you, like a good boy I'll pretend
Cm
And promise not to do it again




- Post-Chorus: G G/F# Em D C D  
               G G



- Verse 2:

       Am          G G/F#                   G         G/F#    Em
Do you remember when,  life was so simple and permanent?
D          C                   D                    Em           
Everyone's changed, "Everyone's cool", Everyone sucks
            C                G                                 A     
But I can't seem to complain, Exciting and new is just not there
                C      D
You're getting scared



- Chorus:

             G                      D                 
I'm not your savior, never thought I was anyway
      C                             D                 
I'm a void with empty promises that backs out late
               G                       Bm                
Never said I'd change, taking back the words that we spoke
       C                     Cm                                
Like a fuel tank running dry, you'll believe it when I choke



- Ending: G Bm C D                                
                    you'll believe it when I choke
          G Bm C D                               
                    you'll believe it when their life
          G Bm C D                                     G Bm C D   G
                    why all the good ones have to die?

  

 G Bm C D (until fades)
Добавлено: 19.12.2015
Другие материалы по этой песне:
  • Аккорды и текст

Страница создана 19.12.2015
http://primanota.ru/swingin-utters/not-your-savior-chords.htm
Привет, Гость.
Предлагаем пройти революционный курс по гитаре.
Подарок от PrimaNota.Ru, забирай!