PrimaNota.ru - самый крупный в мире бесплатный архив песенных текстов, аккордов, табулатур и нот


Swingin Utters - I Got Your Number - таба, видео

Регистрация Запомнить меня
Войти через:  Facebook Google Twitter Vk Yandex Mail.ru

Swingin Utters - I Got Your Number - таба, видео

Печатать
Просмотров: 69
I Got Your Number By Cock Sparrer this is the Swingin' Utters version from the
Hatest Grits: B-Sides And Bullshit CD

I don't know how many times he plays the first chord so play it until you hear him go to 
the second chord
e--------------------------|
B--------------------------|
G------7----9----7----9----|
D--7---7-8x-9-8x-7-8x-9-8x-|
A--7---5----7----5----7----|
E--5-----------------------|
PM *   *    *    *    *

And go into this
e--------------------------------------------|
B----------------------------------9-10-9----|
G-------7-777-7-6-666-999999999999--------9/-|
D-7-----7-777-7-6-666-999999999999-----------|
A-7-12x-5-555-5-4-444-777777777777-----------|
E-5------------------------------------------|

Chorus
e---------------------------------------------------------------------|
B---------------------------------------------------------------------|
G-7-777-9-999----------------------7-777-9-999-----------77-7-66-6-9~-|
D-7-777-9-999-xx-7-xx-7-xx-7-xx-7--7-777-9-999-7-7777777-77-7-66-6-9~-|
A-5-555-7-777-xx-7-xx-7-xx-7-xx-7--5-555-7-777-7-7777777-55-5-44-4-7~-|
E-------------xx-5-xx-5-xx-5-xx-5--------------5-5555555--------------|

Go back to this
e---------------------------|
B---------------------------|
G------7----9----7----9-----|
D--7---7-8x-9-8x-7-8x-9-8x--|
A--7---5----7----5----7-----|
E--5------------------------|
PM *   *    *    *    *

Then this again
e--------------------------------------------|
B----------------------------------9-10-9----|
G-------7-777-7-6-666-999999999999--------9/-|
D-7-----7-777-7-6-666-999999999999-----------|
A-7-12x-5-555-5-4-444-777777777777-----------|
E-5------------------------------------------|

Chorus
e---------------------------------------------------------------------|
B---------------------------------------------------------------------|
G-7-777-9-999----------------------7-777-9-999-----------77-7-66-6-9~-|
D-7-777-9-999-xx-7-xx-7-xx-7-xx-7--7-777-9-999-7-7777777-77-7-66-6-9~-|
A-5-555-7-777-xx-7-xx-7-xx-7-xx-7--5-555-7-777-7-7777777-55-5-44-4-7~-|
E-------------xx-5-xx-5-xx-5-xx-5--------------5-5555555--------------|

Play this at "You think your so special"
e--------------------------------------------------------------------------|
B--------------------------------------------------------------------------|
G-11--11-11-11-11-11-11-11--7--7--7--11--11-11-11-11-11-11-11-11--9--9--9--|
D-11--11-11-11-11-11-11-11--7--7--7--11--11-11-11-11-11-11-11-11--9--9--9--|
A-9---9--9--9--9--9--9--9---5--5--5--9---9--9--9--9--9--9--9--9---7--7--7--|
E--------------------------------------------------------------------------|

e-------------------------------------------------|
B-------------------------------------------------|
G-11--11-11-11-11-11-11-11--777777-9~--999~--999~-|
D-11--11-11-11-11-11-11-11--777777-9~--999~--999~-|
A-9---9--9--9--9--9--9--9---555555-7~--777~--777~-|
E-------------------------------------------------|

Solo (i think he uses a pitch shifter effect or something on the solo)
e-10h9-9-10h9-9-10\12~--10h9-9-10h9-9-10\12~-12\14-12-10-9--------14-12-10-9--------|
B----------------------------------------------------------10-12~------------10-12~-|
G-----------------------------------------------------------------------------------|
D-----------------------------------------------------------------------------------|
A-----------------------------------------------------------------------------------|
E-----------------------------------------------------------------------------------|

e------------------------|
B------------------------|
G-7-777-666666-9999999---|
D-7-777-666666-9999999---|
A-5-555-444444-7777777---|
E------------------------|

After the solo
e--------------------------------------------------------------------------|
B--------------------------------------------------------------------------|
G-11--11-11-11-11-11-11-11--7--7--7--11--11-11-11-11-11-11-11-11--9--9--9--|
D-11--11-11-11-11-11-11-11--7--7--7--11--11-11-11-11-11-11-11-11--9--9--9--|
A-9---9--9--9--9--9--9--9---5--5--5--9---9--9--9--9--9--9--9--9---7--7--7--|
E--------------------------------------------------------------------------|

e------------------------------------------------------|
B------------------------------------------------------|
G-11--11-11-11-11-11-11-11--7--7--7--9~--999~--999~----|
D-11--11-11-11-11-11-11-11--7--7--7--9~--999~--999~----|
A-9---9--9--9--9--9--9--9---5--5--5--7~--777~--777~----|
E------------------------------------------------------|

Play this till the end
e-------------------------------------------------------------------------|
B-------------------------------------------------------------------------|
G-7-777-9-999----------------------7-777-9-999-----------77-7-66-6-999999-|
D-7-777-9-999-xx-7-xx-7-xx-7-xx-7--7-777-9-999-7-7777777-77-7-66-6-999999-|
A-5-555-7-777-xx-7-xx-7-xx-7-xx-7--5-555-7-777-7-7777777-55-5-44-4-777777-|
E-------------xx-5-xx-5-xx-5-xx-5--------------5-5555555------------------|
Добавлено: 04.06.2013
Другие материалы по этой песне:
  • Аккорды и текст

Страница создана 04.06.2013
http://primanota.ru/swingin-utters/i-got-your-number-chords.htm
Привет, Гость.
Предлагаем пройти революционный курс по гитаре.
Подарок от PrimaNota.Ru, забирай!