PrimaNota.ru - самый крупный в мире бесплатный архив песенных текстов, аккордов, табулатур и нот


Swiftfoot - Gone - бас-таба, видео

Регистрация Запомнить меня
Войти через:  Facebook Google Twitter Vk Yandex Mail.ru

Swiftfoot - Gone - бас-таба, видео

Печатать
Просмотров: 59
Уроки эстрадного вокала в Санкт-Петербурге
Song: Gone
Artist: Switchfoot
Album: The Beautiful Letdown (2003)
Tabbed by: Tarzanboy007 (bassace77@hotmail.com)
Notes:  Fairly simple song.  A few subtle octave changes 
        in diff measures. Probably a bit easier to play 
        lower on the neck unless you have a
        5-string (I have horrible fingering, so it probably 
        doesn't matter for me) I heard this on the radio 
        today.  Didn't see a tab for it and figured 
        anything i can do to make christian music more 
        accessible is a good thing!


Intro (no bass)


G:|---------------------------------------------------|-
D:|---2-2----------------2-2-------2-2----------------|-
A:|----------------------------2----------------------|-
E:|---------------------------------------------------|-

G:|---------------------------------------------------|-
D:|-------------2-2-----2-2--------2-2-------2-2------|-
A:|------------------2-------------------2------------|-
E:|---------------------------------------------------|-

G:|---------------------------------------------------|-
D:|----------2-2-2------2-2---------------------------|-
A:|-----------------2---------------------------------|-
E:|---------------------------------------------------|-

(singing starts)

G:|---------------------------------------------------|-
D:|-------------2-2-----2-2----------2-2-------2-2----|-
A:|------------------2---------------------2----------|-
E:|---------------------------------------------------|-

G:|---------------------------------------------------|-
D:|-------------2-2-----2-2----------2---------4------|-
A:|------------------2--------------------2-----------|-
E:|---------------------------------------------------|-

G:|---------------------------------------------------|-
D:|--2-2--------2-2-----2-2----------2-2-------2-2----|-
A:|------------------2---------------------2----------|-
E:|---------------------------------------------------|-

G:|---------------------------------------------------|-
D:|-------------2-2-----2-2----------2---------4------|-
A:|------------------2--------------------2-----------|-
E:|---------------------------------------------------|-

G:|---------------------------------------------------|-
D:|---------------------------------------------------|-
A:|--0---------------------2--------------------------|-
E:|---------------------------------------------------|-

G:|---------------------------------------------------|-
D:|---------------------------------------------------|-
A:|--0---------------------2--------------------------|-
E:|---------------------------------------------------|-

[REFRAIN1]
Gone

G:|--------------------------2-2---2--2-2-------------|-
D:|-2--2-2---2--2-2-2---------------------4-----------|-
A:|----------------------0----------------------------|-
E:|-------------------4-------------------------------|-

G:|---------------------------------------------------|-
D:|----------------------2----------------------------|-
A:|--4--4--4-----4--4-4------3----2----0--------------|-
E:|---------------------------------------3-----------|-

G:|---------------------------------------------------|-
D:|---------------------------------------------------|-
A:|---------------------------------------------------|-
E:|------0-0------------------------------------------|-

G:|---------------------------------------------------|-
D:|---------------------------------------------------|-
A:|----------------------------------------2----------|-
E:|-------------------------------------------0--0----|-
[end REFRAIN1]

G:|---------------------------------------------------|-
D:|---------------------2-2---------2-2-2-------------|-
A:|--2---------------2---------------------2----------|-
E:|-----0-0-----0-0-----------------------------0-0---|-

G:|---------------------------------------------------|-
D:|---------------------2-2----------2----------------|-
A:|------------------2--------------------2---2-------|-
E:|-------------0-0-----------------------------------|-

G:|---------------------------------------------------|-
D:|-------------2-2-----2-2---------2-2-2-------------|-
A:|------------------2---------------------2----------|-
E:|---------------------------------------------0-0---|-

G:|---------------------------------------------------|-
D:|---------------------2-2----------2---------4------|-
A:|------------------2--------------------2-----------|-
E:|-------------0-0-----------------------------------|-

G:|---------------------------------------------------|-
D:|---------------------------------------------------|-
A:|--0---------------------2--------------------------|-
E:|---------------------------------------------------|-

G:|---------------------------------------------------|-
D:|---------------------------------------------------|-
A:|--0---------------------2--------------------------|-
E:|---------------------------------------------------|-

[REFRAIN2]

G:|--------------------------2-2---2--2-2-------------|-
D:|-2--2-2---2--2-2-2---------------------4-----------|-
A:|----------------------0----------------------------|-
E:|-------------------4-------------------------------|-

G:|--------------------------------------------2------|-
D:|----------------------2-------------1--2--4--------|-
A:|--4--4--4-----4--4-4------2----4-------------------|-
E:|---------------------------------------------------|-

[end REFRAIN2]
(Refrain 1)

G:|--------------------------2-2---2--2-2-------------|-
D:|-2--2-2---2--2-2-2---------------------4-----------|-
A:|----------------------0----------------------------|-
E:|-------------------4-------------------------------|-

G:|---------------------------------------------------|-
D:|----------------------2----------------------------|-
A:|--4--4--4-----4--4-4------3----2----0--------------|-
E:|---------------------------------------3-----------|-

G:|---------------------------------------------------|-
D:|---------------------------------------------------|-
A:|------------------2---------------------2----------|-
E:|-----0-0-----0-0-----0-0---------0-0-0-------0-0---|-

[bridge]
G:|---------------------------------------------------|-
D:|---------------------------------------------------|-
A:|---------------------------------------------------|-
E:|-----0----0----0----0----0----0----0----0----------|-

G:|---------------------------------------------------|-
D:|---------------------------------------------------|-
A:|---------------------------------------------------|-
E:|-----3----3----3----3----3----3----3----3----------|-

G:|---------------------------------------------------|-
D:|---------------------------------------------------|-
A:|---------------------------------------------------|-
E:|-----5----5----5----5----5----5----5----5----------|-

G:|--------------------9~~~14~12~9--------------------|-
D:|----------------------------------10--10--9--------|-
A:|---------------------------------------------------|-
E:|-----8----8----8-----------------------------------|-

G:|---------------------------------------------------|-
D:|---------------------------------------------------|-
A:|---------------------------------------------------|-
E:|-----0----0----0----0----0----0----0----0----------|-

G:|---------------------------------------------------|-
D:|---------------------------------------------------|-
A:|---------------------------------------------------|-
E:|-----3----3----3----3----3----3----3----3----------|-

G:|---------------------------------------------------|-
D:|---------------------------------------------------|-
A:|---------------------------------------------------|-
E:|-----5----5----5----5----5----5----5----5----------|-

G:|---------------------------------------------------|-
D:|---------------------------------------------------|-
A:|---------------------------------------------------|-
E:|-----8----8----8----8----8----8----8----8----------|-

[end bridge]

G:|---------------------------------------------------|-
D:|---------------------------------------------------|-
A:|---------------------------------------------------|-
E:|-~0------------------------------------------------|-

G:|---------------------------------------------------|-
D:|---------------------------------------------------|-
A:|---------------------------------------------------|-
E:|----------------------------------------h5-5-------|-

Refrain3 x2
G:|--------------------------2-2---2--2-2-------------|-
D:|-2--2-2---2--2-2-2---------------------4-----------|-
A:|----------------------0----------------------------|-
E:|-------------------4-------------------------------|-

G:|------------------------------2-2---2--2-2---------|-
D:|----------------------2---------------------4------|-
A:|--4--4--4-----4--4-4------0------------------------|-
E:|---------------------------------------------------|-

Variations on Refrain.......
(ionian major scale)
G:|------------------------------2-2---2--2-2---------|-
D:|--------------------1--2--0-----------------4------|-
A:|-----------0--2--5---------------------------------|-
E:|--0--2--4------------------------------------------|-

                             (lydian major)
G:|--------------------------------------------1------|-
D:|----------------------2------------1--2--4-----2---|-
A:|--4--4--4-----4--4-4------0--2--4------------------|-
E:|---------------------------------------------------|-

G:|------------------------2-2-2---2--2-2-------------|-
D:|-2--2-2---2--2------------------------4------------|-
A:|----------------4--2--0----------------------------|-
E:|---------------------------------------------------|-

G:|------------------------------2-2---2--2-----4-----|-
D:|----------------------2-------------------4--------|-
A:|--4--4--4-----4--4-4------0------------------------|-
E:|---------------------------------------------------|-

G:|------------------------2-2-2---2--2-2-------------|-
D:|-2--------2--2------------------------4------------|-
A:|----0----------4--2--0-----------------------------|-
E:|---------------------------------------------------|-

G:|------------------------------2-2---2--2-2---------|-
D:|----------------------2---------------------4------|-
A:|--4--4--4-----4--4-4------0------------------------|-
E:|---------------------------------------------------|-

Fade out..........
     
Добавлено: 13.07.2013
Другие материалы по этой песне:
  • Аккорды и текст

Страница создана 13.07.2013
http://primanota.ru/swiftfoot/gone-chords.htm
Привет, Гость.
Предлагаем пройти революционный курс по гитаре.
Подарок от PrimaNota.Ru, забирай!