PrimaNota.ru - самый крупный в мире бесплатный архив песенных текстов, аккордов, табулатур и нот


Swervedriver - Over Part 2 - таба, видео

Регистрация Запомнить меня
Войти через:  Facebook Google Twitter Vk Yandex Mail.ru

Swervedriver - Over Part 2 - таба, видео

Печатать
Просмотров: 100
Over Part 2 (Swervedriver)

General Notes:
Standard Tuning. Adapted from a live bootleg of Adam playing acoustic guitar 
(10/30/2000, Copenhagen). Standard 4/4 time.

Intro:

     Cmaj7           A2          rep. 2X
E||--0---0--0-00--0000---0--0-0-------||
B||--0---0--0-00--0000---0--0-0-------||
G||.-0---0--0-00—-0002---2--2-2---0--.||
D||.-2---2--2-22-—2222---2--2-2-02-0-.||
A||--3---3--3-33--3330---0--0-0-------||
E||-----------------------------------||
     1 & 2 & 3 & 4 & 1 & 2 & 3 & 4 & 

Verse:

     Cmaj7           A2          rep. 2X
E||--0---0--0-00--0000---0--0-0-------||
B||--0---0--0-00--0000---0--0-0-------||
G||.-0---0--0-00—-0002---2--2-2---0--.||
D||.-2---2--2-22-—2222---2--2-2-02-0-.||
A||--3---3--3-33--3330---0--0-0-------||
E||-----------------------------------||
     1 & 2 & 3 & 4 & 1 & 2 & 3 & 4 & 
                The o-   cean   drops She
                Cups her hands  over  me

     G6              G4.5        rep. 2X
E||--0---0--0-00--0000---0--0-00--000-||
B||--0---0--0-00--0001---1--1-11--111-||
G||.-0---0--0-00—-0002---2--2-22--222.||
D||.-0---0--0-00-—0003---3--2-33--333.||
A||--2---2--2-22--2223---3--3-33--333-||
E||--3---3--3-33--333-----------------||
     1 & 2 & 3 & 4 & 1 & 2 & 3 & 4 & 
                We drift   out    to  sea
                And now I can   see                 The

 
Bridge:

   G6              G4.5        
E|--------------0000---0--0-00--000-|
B|--------------0001---1--1-11--111-|
G|--------0000000002---2--2-22—-222-|
D|-0-000000000000003---3--2-33—-333-|
A|-2-222222222222223---3--3-33--333-|
E|-3-33333333333333-----------------|
   1 & 2 & 3 & 4 & 1 & 2 & 3 & 4 & 
     sa-  ving   da-  nger   waves      

   G6  A2  C   G6  G4.5        
E|-0-000-000-000-000---0--0-00--000-|
B|-0-000-001-110-001---1--1-11--111-|
G|-0-002—220-000-002---2--2-22—-222-|
D|-0-002-222-220-003---3--2-33—-333-|
A|-2-220-003-332-223---3--3-33--333-|
E|-3-33--------3-33-----------------|
   1 & 2 & 3 & 4 & 1 & 2 & 3 & 4 &
                                       But I   wanna

     A2              G4.5               
E||--0---0--0-00--0000---0--0-00--000-|
B||--0---0--0-00--0001---1--1-11--111-|
G||.-2---2--2-22—-2222---2--2-22-—222-|
D||.-2---2--2-22-—2223---3--2-33—-333-|
A||--0---0--0-00--0003---3--3-33--333-|
E||-----------------------------------|
     1 & 2 & 3 & 4 & 1 & 2 & 3 & 4 & 
         see it all                            I want to
       breathe it all                          I want to

   G6              G4.5        rep. 2X
E|-0---0--0-00--0000---0--0-00--000-||
B|-0---0--0-00--0001---1--1-11--111-||
G|-0---0--0-00—-0002---2--2-22--222.||
D|-0---0--0-00-—0003---3--2-33--333.||
A|-2---2--2-22--2223---3--3-33--333-||
E|-3---3--3-33--333-----------------||
   1 & 2 & 3 & 4 & 1 & 2 & 3 & 4 & 
     see                                    I  wanna 
     breathe                                I want to

 
     G6              G4.5        rep. 3X
E||--0---0--0-00--0000---0--0-00--000-||
B||--0---0--0-00--0001---1--1-11--111-||
G||.-0---0--0-00—-0002---2--2-22--222.||
D||.-0---0--0-00-—0003---3--2-33--333.||
A||--2---2--2-22--2223---3--3-33--333-||
E||--3---3--3-33--333-----------------||
     1 & 2 & 3 & 4 & 1 & 2 & 3 & 4 & 
        breathe                                I  want to
        breathe                                  Wa- 
                         na     breathe

I have extended the first bar of this phrase because Adam plays fast triplets on every up beat

     G6                      G4.5        rep. 2X
E||--0--0000--0000--0000-0-0-0---0--0-00--000-||
B||--0--0001--1113--3333-3-3-1---1--1-11--111-||
G||.-0--0000--0000--0000-0-0-2---2--2-22--222.||
D||.-0-----0-----0-----0-0-0-3---3--2-33--333.||
A||--2-----2-----2-----2-2-2-3---3--3-33--333-||
E||--3-----3-----3-----3-3-3------------------||
     1  &  2  &  3  &  4  &  1 & 2 & 3 & 4 & 

Verse:

   Cmaj7           A2          
E|-0---0--0-00--0000---0--0-0------|
B|-0---0--0-00--0000---0--0-0------|
G|-0---0--0-00—-0002---2--2-2---0--|
D|-2---2--2-22-—2222---2--2-2-02-0-|
A|-3---3--3-33--3330---0--0-0------|
E|---------------------------------|
   1 & 2 & 3 & 4 & 1 & 2 & 3 & 4 & 
             It's all  I    can   do       to  swim

   Cmaj7          G4.5        
E|-0---0--0-00--0000---0--0-00--000|
B|-0---0--0-00--0001---1--1-11--111|
G|-0---0--0-00—-0002---2--2-22--222|
D|-2---2--2-22-—2223---3--2-33--333|
A|-3---3--3-33--3333---3--3-33--333|
E|---------------------------------|
   1 & 2 & 3 & 4 & 1 & 2 & 3 & 4 & 
        closer      to       you           

 
   G6              G4.5        
E|-0---0--0-00--0000---0--0-00--000|
B|-0---0--0-00--0001---1--1-11--111|
G|-0---0--0-00—-0002---2--2-22--222|
D|-0---0--0-00-—0003---3--2-33--333|
A|-2---2--2-22--2223---3--3-33--333|
E|-3---3--3-33--333----------------|
   1 & 2 & 3 & 4 & 1 & 2 & 3 & 4 & 
             The big  wide   world               is 

   G6              G4.5            
E|-0---0--0-00--0000---0--0-00—-0000--------------|
B|-0---0--0-00--0000---0--0-00—-0000--------------|
G|-0---0--0-00—-0002---2--2-22—-2220--------------|
D|-0---0--0-00-—0000---0--0-00—-0000--------------|
A|-2---2--2-22--2222---2--2-22—-2222--------------|
E|-3---3--3-33--3333---3--3-33—-3333--------------|
   1 & 2 & 3 & 4 & 1 & 2 & 3 & 4 & 1 & 2 & 3 & 4 &
   beating me  round the ears 
Добавлено: 04.06.2012
Другие материалы по этой песне:
  • Аккорды и текст

Страница создана 04.06.2012
http://primanota.ru/swervedriver/over-part-2-chords.htm
Привет, Гость.
Предлагаем пройти революционный курс по гитаре.
Подарок от PrimaNota.Ru, забирай!