PrimaNota.ru - самый крупный в мире бесплатный архив песенных текстов, аккордов, табулатур и нот


Swervedriver - Never Lose That Feeling Never Learn - бас-таба, видео

Регистрация Запомнить меня
Войти через:  Facebook Google Twitter Vk Yandex Mail.ru

Swervedriver - Never Lose That Feeling Never Learn - бас-таба, видео

Печатать
Просмотров: 25
------------------------------------------------------------------------------; 
NEVER LOSE THAT FEELING / NEVER LEARN - Swervedriver
-------------------------------------------------------------------------------
Tabbed by: MH

Tuning: Standard

From their classic 1993 album "Mezcal Head"

RIFF 1 (MAIN RIFF/CHORUS)

G|--------------------------------------------------------------|
D|-3-3-3-3-3-3----------------------------3---------------3-----|
A|-------------1-1-1-1-1-1---5--5-5-5-5-3---5---5-5-5-5-3---5---|
E|--------------------------------------------------------------|

If you want to change it up a bit, you can improvise.  
I'm sure I've seen them play Riff 1 like this live:

G|---------------------------------------------------------------|
D|------------------------3---------------3-------------3--------|
A|------------1-1-1-1-1p0---5---5-5-5-5-3---5---5-5-5-3---5------|
E|-1-1-1-1-1-1---------------------------------------------------|


RIFF 2 

G|------------------------------------------------------|
D|------------------------------------------------------|
A|------------------------------------------------------|
E|-6-6-5-6-5-6-6-5-6-5-6-6-5-6-5-6-/-8-8-8-8-8-8-\-6----|

RIFF 3 

G|--------------------------------------------------|
D|--------------------------------------------------|
A|--------------------------------------------------|
E|-6-6-5-6-5-6-6-5-6-5-6-6-5-6-5-6-/-8-8-8-8-8-8----|

RIFF 4  (2:39)

G|-----------------------------------|
D|-----------------------------------|
A|-5-5-5-5-5-5-5-5-8-8-8-8-----------|
E|-------------------------6-6-6-6---|

RIFF 5

G|---------------------------------------------|
D|---------------------------------------------|
A|5-5-5-5-5-5-5-5-8-8-8-8-13-13-13-13----5-5-5-|
E|---------------------------------------------|


INSTRUMENTAL SECTION

RIFF 6 (4:11)

G|---------------------------------------------------------------------------|
D|---------------------------------------------------------------------------|
A|-5-5-5-5-5-5-5-5-5-5-5-5-5-5-5-5-5-5-7-8-----8---8--------10---10----------|
E|-----------------------------------------6-6---6---6--8-8----8----8--------|

RIFF 7 (4:43)

G|-7-----7-----7--------------------------------------------------------------|
D|---7-----7-------7--------------------8-----8-----8-------------------------|
A|-----5-----5---5---5/8-8-8-8-8-8-8-8----8-----8-------8---------------------|
E|------------------------------------------6-----6---6---6-8-8-8-8-8-8-6-----|


Here's a few small variations on Riff 6 that he uses occasionally during the instrumental:

G|---------------------------------------------------------------------------|
D|-------------------------------------------5-------------------------------|
A|-5-5-5-5-5-5-5-5-5-5-5-5-5-5-5-5-5-5-5-5h7--------8---------10----10-------|
E|---------------------------------------------6-6----6--8-8-----8-----8-----|

G|---------------------------------------------------------------------------|
D|---------------------------------------------------------------------------|
A|-5-5-5-5-5-5-5-5-5-5-5-5-5-5-5-5-5-5-3-5-----8---8--------10---10----------|
E|-----------------------------------------6-6---6---6--8-8----8----8--------|




ORDER OF PARTS

RIFF 1 X 8
RIFF 2 X 3
RIFF 3 X 1
RIFF 1 X 4
RIFF 2 X 3
RIFF 3 X 1
RIFF 1 X 4
RIFF 4 X 3
RIFF 5 X 1
RIFF 1 X 8
RIFF 6 X 4
RIFF 7 X 4

Repeat playing riff 6 and 7 four times each over and over until the end of the song.

| /  slide up
| \  slide down
| h  hammer-on
| p  pull-off
| ~  vibrato
| +  harmonic
| x  Mute note
===============================================================================
Добавлено: 01.09.2015
Другие материалы по этой песне:
  • Аккорды и текст

Страница создана 01.09.2015
http://primanota.ru/swervedriver/never-lose-that-feeling-never-learn-chords.htm
Привет, Гость.
Предлагаем пройти революционный курс по гитаре.
Подарок от PrimaNota.Ru, забирай!