PrimaNota.ru - самый крупный в мире бесплатный архив песенных текстов, аккордов, табулатур и нот


Swervedriver - Blowin' Cool - текст песни, бас-таба, видео

Регистрация Запомнить меня
Войти через:  Facebook Google Twitter Vk Yandex Mail.ru

Swervedriver - Blowin' Cool - текст песни, бас-таба, видео

Печатать
Просмотров: 74
Авторы музыки: Swervedriver

-------------------------------------------------------------------------------
                             BLOWIN COOL - Swervedriver
-------------------------------------------------------------------------------
Tabbed by: MH
E-mail: mark_hotte@yahoo.com

Tuning: Standard

Cool song by a criminally underrated band.

MAIN RIFF

G|---------------------------------------------------------------------------|
D|------------------------10-10-10-8-----------------------------------------|
A|--8-8-8-8-7-8-10-------------------10-8-10--6~-----------------------------|
E|-----------------8--------------------------4~-----------------------------|

PRE-CHORUS

G|---------------------------------------------------------------------------|
D|-10-10-10-10-8----8----------10-8-8-8-8------------------------------------|
A|---------------10---10-6----------------10-8-10-6--------------------------|
E|---------------------------------------------------------------------------|

G|---------------------------------------------------------------------------|
D|-10-10-10-10-8----8-----------10--8--6-------------------------------------|
A|---------------10---10-6---------------------------------------------------|
E|---------------------------------------------------------------------------|

CHORUS

G|---------------------------------------------------------------------------|
D|---------------------------------------------------------------------------|
A|-8-8-------------8-8-------------------------6-6-6-6-6-6-------------------|
E|-----6-8-6-8-6-8-----6-8--9-9-9--4-4-4-4-4-4-------------------------------|

FILL

G|---------------------------------------------------------------------------|
D|---------------------------------------------------------------------------|
A|-6-6-6-6-6-6-6-6-6-6-6-6-6-6-----------------------------------------------|
E|---------------------------------------------------------------------------|

OUTRO

G|---------------------------------------------------------------------------|
D|-6-----6-----6-----6-----6-----6-----6-----6-----6-----6-----6-------------|
A|---6-6---6-6---6-6---6-6---6-6---6-6---6-6---6-6---6-6---6-6---------------|
E|---------------------------------------------------------------------------|


ORDER OF PARTS:
MAIN RIFF X 6
PRE-CHORUS X 1
MAIN RIFF X 4
CHORUS X 4
FILL X 1
MAIN RIFF X 4
PRE-CHORUS X 1
CHORUS X 1
OUTRO X 1

| /  slide up
| \  slide down
| h  hammer-on
| p  pull-off
| ~  vibrato
| +  harmonic
| x  Mute note
===============================================================================
Добавлено: 01.09.2015
Вам также может быть интересно:
Другие материалы по этой песне:
  • Аккорды и текст

Страница создана 10.05.2012
http://primanota.ru/swervedriver/blowin-cool-chords.htm
Привет, Гость.
Предлагаем пройти революционный курс по гитаре.
Подарок от PrimaNota.Ru, забирай!