PrimaNota.ru - самый крупный в мире бесплатный архив песенных текстов, аккордов, табулатур и нот


Swell - Everything - таба, видео

Регистрация Запомнить меня
Войти через:  Facebook Google Twitter Vk Yandex Mail.ru

Swell - Everything - таба, видео

Печатать
Просмотров: 120
Song : EVERYTHING
Artist : SWELL
Album : …well ? (1991)
Official website : www.swellsongs.com

C : 8 10 10 9 8 8
Bb : 6 8 8 7 6 6
D : 10 12 12 11 10 10

verse :
guitar1 (ac) :
------------------------------------------------------|
------------------------------------------------------|
-1--1--1--1--2--2--2-2-2-3-3--3--3-3-3-5-5--5--5-5-5--|
-0--0--0--0--0--0--0-0-0-0-0--0--0-0-0-0-0--0--0-0-0--|
------------------------------------------------------|
-1--1--1--1--2--2--2-2-2-3-3--3--3-3-3-5-5--5--5-5-5--|

guitar2 (el) : comes in the second part of the verse
------------------------------------------------------|
------------------------------------------------------|
-------------12-12-10-12-12-10-12-12-12-10-12---------|
-------------12-12-10-12-12-10-12-12-12-10-12---------|
------------------------------------------------------|
------------------------------------------------------|

Refrain :
C   Bb    C     Bb   D

solo :
Guitar2 :
-----------------------------------------------------|
------------(13)\11-10/(11)-10-----------------------|
-----------------------------------------------------|
------10/(12)----------------------------------------|
-----------------------------------------------------|
-----------------------------------------------------|

end :
guitar1 :
riff1 :
-8--8--11-x-11-8--8--8--x-8--8--8--8--x-8--8--8--8--8--|
-8--8--8--x-8--8--8--11-x-11-8--8--8--x-8--8--8--8--8--|
-9--9--9--x-9--9--9--9--x-9--9--9--11-x-11-9--9--11-9--|
-10-10-10-x-10-10-10-10-x-10-10-10-10-x-10-10-10-10-10-|
-10-10-10-x-10-10-10-10-x-10-10-10-10-x-10-10-10-10-10-|
-8--8--8----8--8--8--8----8--8--8--8--x-8--8--8--8--8--|

riff2 :
-6-6-6--6--6-6-6--6--6-6-6--6--6-6-6--6--6-6-6--6--6-6-6--6-|
-6-6-6--6--6-6-6--6--6-6-6--6--6-6-6--6--6-6-6--6--6-6-6--6-|
-7-7-9--9--7-7-9--9--7-7-9--9--7-7-9--9--7-7-9--9--7-7-9--9-|
-8-8-8--8--8-8-8--8--8-8-8--8--8-8-8--8--8-8-8--8--8-8-8--8-|
-8-8-8--8--8-8-8--8--8-8-8--8--8-8-8--8--8-8-8--8--8-8-8--8-|
-6-6-6--6--6-6-6--6--6-6-6--6--6-6-6--6--6-6-6--6--6-6-6--6-|x2

guitar2 :
(riff1)

(riff2)
---------------------|
-10-/-(12)-----------|
---------------------|
---------------------|
---------------------|
---------------------|
+ as guitar1

(riff1)
---------------------|
-5-4-----------------|
-----5---------------|
---------------------|
---------------------|
---------------------|

(riff2)
---------------------|
-10-/-(12)-----------|
---------------------|
---------------------|
---------------------|
---------------------|
+ as guitar1

(riff1)
----------------------------------------------------------|
-5-4------------------------------------------------------|
-----5--------------0---3-----3-----3-----3-----3-----3---|
------------------2---2---2-----2-----2-----2-----2-----2-|
------------0-2-3-----------3-----3-----3-----3-----3-----|
----------------------------------------------------------|


Through a circus eye I saw everything.
Can't understand why
Can't change anything.
I bow down now and say all my prayers.
Don't care about how just go anywhere.
I make a list, I list everything,
I make a wish, I wish anything,
Won't shut up till I've said every word,
Don't understand why just know
That this should stop now.

Maybe the stars can't decide
Maybe they're too damn tired

Don't roll out tears to match every sigh.
But I raise My hell up so very high.
I drag myself round from sea to sea,
Don't understand why just know that
This should stop now…

EVERYTHING IS GREEN TONIGHT… go
Добавлено: 28.03.2012
Другие материалы по этой песне:
  • Аккорды и текст

Страница создана 28.03.2012
http://primanota.ru/swell/everything-chords.htm
Привет, Гость.
Предлагаем пройти революционный курс по гитаре.
Подарок от PrimaNota.Ru, забирай!