PrimaNota.ru - самый крупный в мире бесплатный архив песенных текстов, аккордов, табулатур и нот


Swell - Comfort 47 - таба, видео

Регистрация Запомнить меня
Войти через:  Facebook Google Twitter Vk Yandex Mail.ru

Swell - Comfort 47 - таба, видео

Печатать
Просмотров: 134
Song : COMFORT 47
Artist : SWELL
Album : SWELL (1990/1991)
official website : www.swellsongs.com


Intro :
-8-/-9---------------------------|
-8-/-9---------------------------|
---------------------------------|
---------------------------------|
---------------------------------|
----------------------slide-part-|
|
---------------------------------|
-----1-------1-------1-------1-2-|
-----1-------1-------1-------1-2-|
-----1-------1-------1-------1-2-|
---------------------------------|
-2-2---2-2-2---2-2-2---2-2-2-----| x4


Verse (intro riff) :
All at once, there was no,
Pennies to count…
Pretty soon, I'll be too,
Desperate to sleep…
        -9-------9-----9---/-12------------|
        -------9-----9---9-----------------|
        -----------------------------------|
        -----------------------------------|
        -----------------------------------|
        -----------------------------------|slide-part
I was inside of the car
I was afraid of the road
I was inside of the car
         ---------------------------------|
         -----1-------1-------1-------1-0-|
         -----1-------1-------1-------1-0-|
         -----1-------1-------1-------1-0-|
         ---------------------------------|
         -2-2---2-2-2---2-2-2---2-2-2-----|
I was the meat on the road

-12------12-----\-10------10----10----\9-|
------12-----12-------10-----10----10----|
-----------------------------------------|
-----------------------------------------|
-----------------------------------------|
------------------------------slide-part-|
|
-0-----------------3--------2-----3-|
-0-----------------3--------3-----3-|
-1-----------------0--------2-----2-|
-2-----------------0--------0-----0-|
-2-----------------2----------------|
-0-----------------3----------------|


---------------------------------|
-----1-------1-------1-------1-2-|
-----1-------1-------1-------1-2-|
-----1-------1-------1-------1-2-|
---------------------------------|
-2-2---2-2-2---2-2-2---2-2-2-----| x2

Well I see buttercups,
And so it should read…
Yes I see buttercups,
And so it should read…
I was inside of the car
I was afraid of the road
I was inside of the car
          ---------------------------------|
          -----1-------1-------1-------1-0-|
          -----1-------1-------1-------1-0-|
          -----1-------1-------1-------1-0-|
          ---------------------------------|
          -2-2---2-2-2---2-2-2---2-2-2-----|
I was just meat on the road

-0-----------------3--------2-----3-|
-0-----------------3--------3-----3-|
-1-----------------0--------2-----2-|
-2-----------------0--------0-----0-|
-2-----------------2----------------|
-0-----------------3----------------|

---------------------------------|
-----1-------1-------1-------1-2-|
-----1-------1-------1-------1-2-|
-----1-------1-------1-------1-2-|
---------------------------------|
-2-2---2-2-2---2-2-2---2-2-2-----|

-0-----------------3--------2-----3---2------------------------------|
-0-----------------3--------3-----3---2------------------------------|
-1-----------------0--------2-----2---3------------------------------|
-2-----------------0--------0-----0---4------------------------------|
-2-----------------2------------------4------------------------------|
-0-----------------3------------------2------------------------------|

-0-----------------7--------6--------|
-0-----------------7--------6--------|
-1-----------------8--------7--------|
-2-----------------9--------8--------|
-2-----------------9--------8--------|
-0-----------------7--------6--------| x12

---------------------------------|
-----1-------1-------1-------1-0-|
-----1-------1-------1-------1-0-|
-----1-------1-------1-------1-0-|
---------------------------------|
-2-2---2-2-2---2-2-2---2-2-2-----|

-0-----------------3--------2-----3-|
-0-----------------3--------3-----3-|
-1-----------------0--------2-----2-|
-2-----------------0--------0-----0-|
-2-----------------2----------------|
-0-----------------3----------------|

---------------------------------|
-----1-------1-------1-------1-2-|
-----1-------1-------1-------1-2-|
-----1-------1-------1-------1-2-|
---------------------------------|
-2-2---2-2-2---2-2-2---2-2-2-----|

-0-----------------3--------2-----3-|
-0-----------------3--------3-----3-|
-1-----------------0--------2-----2-|
-2-----------------0--------0-----0-|
-2-----------------2----------------|
-0-----------------3----------------|

-0-----------------3--------2-----3---2------------------------------|
-0-----------------3--------3-----3---2------------------------------|
-1-----------------0--------2-----2---3------------------------------|
-2-----------------0--------0-----0---4------------------------------|
-2-----------------2------------------4------------------------------|
-0-----------------3------------------2------------------------------|
Добавлено: 23.02.2012
Другие материалы по этой песне:
  • Аккорды и текст

Страница создана 23.02.2012
http://primanota.ru/swell/comfort-47-chords.htm
Привет, Гость.
Предлагаем пройти революционный курс по гитаре.
Подарок от PrimaNota.Ru, забирай!