PrimaNota.ru - самый крупный в мире бесплатный архив песенных текстов, аккордов, табулатур и нот


Sweethead - Traumatized And Dumb - таба, видео

Регистрация Запомнить меня
Войти через:  Facebook Google Twitter Vk Yandex Mail.ru

Sweethead - Traumatized And Dumb - таба, видео

Печатать
Просмотров: 88
Sweethead - Traumatized and Dumb

Tabbed By: Mark DiFranco

Tuning - E A D G B e
 

Intro:
e|---0-0~---------------------0--0~-------------0-------0-0~----------| 
B|---5-5~------5------5-------8--8~------8---------8----3-3~------3---|
G|---6-6~--6------6------6----9--9~--9------9--------9--4-4~--4-------| 
D|---7-7~----7------7------7--10-10~---10-----10--------5-5~----5-----|
A|---7-7~---------------------10-10~--------------------5-5~----------| 
E|--------------------------------------------------------------------| 

e|-------0-------0-0~-------------------------------------------------| 
B|----------3----5-5~------5------5-----------------------------------|
G|---4--------4--6-6~--6------6------6--------------------------------| 
D|-----5---------7-7~----7------7------7------------------------------|
A|---------------7-7~-------------------------------------------------| 
E|--------------------------------------------------------------------|


Chorus(w/ distortion):
e|--0-0-0-0-0-0-0-0-0-0-0-0-0-0-0-0--0--0--0--0--0--0--0--0--0--0--0--| 
B|--5-5-5-5-5-5-5-5-5-5-5-5-5-5-5-8--8--8--8--8--8--8--8--8--8--8--8--|
G|--6-6-6-6-6-6-6-6-6-6-6-6-6-6-6-9--9--9--9--9--9--9--9--9--9--9--9--| 
D|--7-7-7-7-7-7-7-7-7-7-7-7-7-7-7-10-10-10-10-10-10-10-10-10-10-10-10-|
A|--7-7-7-7-7-7-7-7-7-7-7-7-7-7-7-10-10-10-10-10-10-10-10-10-10-10-10-| 
E|--------------------------------------------------------------------| 

e|-0--0--0--0--0-0-0-0-0-0-0-0-0-0-0-0-0-0-0-0-0-0-0-0-0-0-0-0-0-0-0--| 
B|-8--8--8--8--3-3-3-3-3-3-3-3-3-3-3-3-3-3-3-3-5-5-5-5-5-5-5-5-5-5-5--|
G|-9--9--9--9--4-4-4-4-4-4-4-4-4-4-4-4-4-4-4-4-6-6-6-6-6-6-6-6-6-6-6--| 
D|-10-10-10-10-5-5-5-5-5-5-5-5-5-5-5-5-5-5-5-5-7-7-7-7-7-7-7-7-7-7-7--|
A|-10-10-10-10-5-5-5-5-5-5-5-5-5-5-5-5-5-5-5-5-7-7-7-7-7-7-7-7-7-7-7--| 
E|--------------------------------------------------------------------|

e|-0-0-0-0-0----------------------------------------------------------| 
B|-5-5-5-5-5----------------------------------------------------------|
G|-6-6-6-6-6----------------------------------------------------------| 
D|-7-7-7-7-7----------------------------------------------------------|
A|-7-7-7-7-7----------------------------------------------------------| 
E|--------------------------------------------------------------------|


Bridge:
e|--------------------------------------------------------------------| 
B|--------------------------------------------------------------------|
G|--------------------------------------------------------------------| 
D|---7-7-7-7-7-7-7-7-x-2-2-2-2-2-2-2/9-9-9-9-9-9-9-9-9-9-9-9-9-9-9-9--|
A|---7-7-7-7-7-7-7-7-x-2-2-2-2-2-2-2/9-9-9-9-9-9-9-9-9-9-9-9-9-9-9-9--| 
E|---5-5-5-5-5-5-5-5-x-0-0-0-0-0-0-0/7-7-7-7-7-7-7-7-7-7-7-7-7-7-7-7--| 

e|--------------------------------------------------------------------| 
B|--------------------------------------------------------------------|
G|--------------------------------------------------------------------| 
D|---7-7-7-7-7-7-7-7-x-2-2-2-2-2-2-2/12-12-12-12-12-12-12-12-12-12-12-| 
A|---7-7-7-7-7-7-7-7-x-2-2-2-2-2-2-2/12-12-12-12-12-12-12-12-12-12-12-| 
E|---5-5-5-5-5-5-5-5-x-0-0-0-0-0-0-0/10-10-10-10-10-10-10-10-10-10-10-| 

e|--------------------------------------------------------------------| 
B|--------------------------------------------------------------------|
G|--------------------------------------------------------------------| 
D|-12-12-12-12-12-----------------------------------------------------|
A|-12-12-12-12-12-----------------------------------------------------| 
E|-10-10-10-10-10-----------------------------------------------------|


Solo (w/ fuzz):
e|--------------------------------------------------------------------| 
B|--------------8b9~---8b9-8-8b9r8-------------------8-10b11r--11r10--|
G|------5~~6~~----------------------9-7-9~-------7-9------------------| 
D|---7~~-------------------------------------7/9----------------------|
A|--------------------------------------------------------------------| 
E|--------------------------------------------------------------------|

e|--------------------------------------------------------------------| 
B|---11r10--11r10---11r10-11r10--8-10-8-------8-10-8------------------|
G|----------------------------------------7/9---------7-7b8-7b8-7b8---| 
D|--------------------------------------------------------------------|
A|--------------------------------------------------------------------| 
E|--------------------------------------------------------------------|

e|----------------------16b-16b~-16b~-14-x-17b~-17b~-17b~-------------| 
B|-----------8b~-x-x-x------------------------------------------------|
G|---7b8r7-5----------------------------------------------------------| 
D|--------------------------------------------------------------------|
A|--------------------------------------------------------------------| 
E|--------------------------------------------------------------------|

e|--------------------------------------------------------------------| 
B|-------8-10-8~------8-10-8~---10b11---------------------------------|
G|---7-9----------7-9-----------------7b~-----------------------------| 
D|--------------------------------------------------------------------|
A|--------------------------------------------------------------------| 
E|--------------------------------------------------------------------|
Добавлено: 04.04.2012
Вам также может быть интересно:
Другие материалы по этой песне:
  • Аккорды и текст

Страница создана 04.04.2012
http://primanota.ru/sweethead/traumatized-and-dumb-chords.htm
Привет, Гость.
Предлагаем пройти революционный курс по гитаре.
Подарок от PrimaNota.Ru, забирай!