PrimaNota.ru - самый крупный в мире бесплатный архив песенных текстов, аккордов, табулатур и нот


Sweet - Sweet F.a. - текст песни, таба, видео

Регистрация Запомнить меня
Войти через:  Facebook Google Twitter Vk Yandex Mail.ru

Sweet - Sweet F.a. - текст песни, таба, видео

Печатать
Просмотров: 314
Уроки эстрадного вокала в Санкт-Петербурге
Авторы: Andy Scott, Brian Connolly, Steve Priest, Mick Tucker

Song name: Sweet F.A.
Band: Sweet
Album: Desolution Boulevard
Transcribed by MikiMixx. mikimixx@serbianna.com
 
Notes: Regular tuning.
 

INTRO: uses 70s type effect by holding an E note then
e|------------------------------------------------------|
B|------------------------------------------------------|
G|------------------------------------------------------|
D|------------------------------------------------------|
A|------------------------------------------------------|
E|-0~2-2-2-2-2-2-2-2-2----------------------------------|
 
    3X
e|-----11-------|---------------------------------------|
B|-14--12--11---|---------------------------------------|
G|-11--11--11---|---------------------------------------|
D|-11--11--11---|-11--9---------------------------------|
A|--------------|--9--7---------------------------------|
E|--------------|---------------------------------------|
 

e|--9--10--9-------9-10-------7-8-7-----7---------------|
B|-10--10-10---8--10-10--9----8-8-8--7--8---------------|
G|--9---9--9---7---9--9--9----7-7-7--7--7---------------|
D|--------------------------------------9---------------|
A|------------------------------------------------------|
E|------------------------------------------------------|
 

e|--10-10--9------9-10------7-8-7-----7-----------------|
B|--10-10-10--8--10-10--9---8-8-8--7--8-----------------|
G|---9--9--9--7---9--9--9---7-7-7--7--7-----------------|
D|------------------------------------9-----------------|
A|------------------------------------------------------|
E|------------------------------------------------------|
 

e|------------------------------------------------------|
B|------------------------------------------------------|
G|------------------------------------------------------|
D|------------------------------------------------------|
A|------------------------------------------------------|
E|-0~2-2-2-2-2-2-2-2-2----------------------------------|
 
    3X
e|-----11-------|---------------------------------------|
B|-14--12--11---|---------------------------------------|
G|-11--11--11---|---------------------------------------|
D|-11--11--11---|-11--9---------------------------------|
A|--------------|--9--7---------------------------------|
E|--------------|---------------------------------------|
 
VERSE 1: Well it's Friday night...
e|------------------------------------------------------|
B|------------------------------------------------------|
G|--9---------9-----------------------------------------|
D|--9---------9-----------------------------------------|
A|--7---------7-----------------------------------------|
E|----0-0-0-0---0-0-0-0---------------------------------|
 
CHORUS: Sweet FA, never gonna...
e|------------------------------------------------------|
B|------------------------------------------------------|
G|------------------------------------------------------|
D|--4-2-4-----------------------------------------------|
A|--4-2-4-----------------------------------------------|
E|--2-0-2-----------------------------------------------|
 
INTERLUDE
   1X Chords correspond to notes below
e|----------|----------|-------|------------------------|
B|----------|----------|-------|------------------------|
G|----------|----------|-------|------------------------|
D|--7-------|--7-------|--7----|------------------------|
A|--7-------|--5-------|--5----|--7---------------------|
E|--5-------|--5-------|-------|--5---------------------|
 
Notes
e|----------|----------|-------|------------------------|
B|----------|----------|-------|------------------------|
G|-7~9----9-|--11---11-|--14---|--14~15'----------------|
D|-----11---|----13----|----16-|------------------------|
A|----------|----------|-------|------------------------|
E|----------|----------|-------|------------------------|
 
    2X Chords correspond to notes below
e|----------|----------|-------|------------------------|
B|----------|----------|-------|------------------------|
G|----------|----------|-------|------------------------|
D|--7-------|--7-------|--7----|------------------------|
A|--7-------|--5-------|--5----|--7---------------------|
E|--5-------|----------|--5----|--5---------------------|
 
Notes
e|----------|----------|-------|------------------------|
B|----------|----------|-------|------------------------|
G|-7~9----9-|--11---11-|--14---|--14~17'----------------|
D|-----11---|----13----|----16-|------------------------|
A|----------|----------|-------|------------------------|
E|----------|----------|-------|------------------------|
 
VERSE 2: Repeat all above includes verse 2 then...
 
e|------------------------------------------------------|
B|------------------------------------------------------|
G|------------------------------------------------------|
D|------------------------------------------------------|
A|------------------------------------------------------|
E|-0~2-2-2-2-2-2-2-2-2----------------------------------|
 

e|------------------------------------------------------|
B|------------------------------------------------------|
G|--------------------------------------------2~0----2--|
D|-------4-------4--2~0-----4-------4------4-----2-0----|
A|----------------------2-0-----------------------------|
E|-0-2-2---0-2-2---------------0-2-2--0-2-2-------------|
 

CHOIR
    AH         AH  AH   F.A.
e|----------|----------|-------|------------------------|
B|----------|----------|-------|------------------------|
G|----------|----------|-------|------------------------|
D|--7-------|--7-------|--7----|------------------------|
A|--7-------|--5-------|--5----|--7---------------------|
E|--5-------|--5-------|-------|--5---------------------|
 
VERSE 3: Same as verse 1&2. Repeat parts. C own solo.
 
Happy Playings!

     
Добавлено: 02.09.2013
Другие материалы по этой песне:
  • Аккорды и текст

Страница создана 27.04.2012
http://primanota.ru/sweet/sweet-fa-chords.htm
Привет, Гость.
Предлагаем пройти революционный курс по гитаре.
Подарок от PrimaNota.Ru, забирай!