PrimaNota.ru - самый крупный в мире бесплатный архив песенных текстов, аккордов, табулатур и нот


Sweet Charity - Penunggu - таба, видео

Регистрация Запомнить меня
Войти через:  Facebook Google Twitter Vk Yandex Mail.ru

Sweet Charity - Penunggu - таба, видео

Печатать
Просмотров: 73
intro:

e|-------------------------------------------------------------------------|
B|-------------------------------------------------------------------------|
G|-------------------------------------------------------------------------|
D|-------------------------------------------------------------------------|
A|---2--3-2-------2-3-2---------5-3------------5-3-------------------------|
E|---2------3-5~--2----3-5~---1------5-7~---1-------5-7-0(tremolo)---121212|

Part A:
e|---------------------------|
B|---------------------------|
G|---------------------------|
D|---------------5~--4-5-4*--|
A|-----------5---------------|
D|--00---7-5---5-------------|  x3
    ..

Part B:
e|--------------------------------------------------------|
B|--------------------------------------------------------|
G|-----------------------------------------7--------------|
D|----------------5-5-4----------5~--7~--/9--9-8-7---5----|
A|-------------5--------7-5------3~--5~------------7------|
D|---00----7-5---5----------------------------------------| x1



after this. . Part A once. . then Part B once.



Then this. .
e|-----------------|
B|-----------------|
G|-----------------|
D|--2~-------------|
A|--2~-------------|
D|-----------------| wave your tremolo on this.

verse:
e|--------------------------------|
B|--------------------------------|
G|--------------------------------|
D|--------------------------------|
A|--------------------------------|
D|---00---00---00---00---00-------|

e|---------------------------------------------------|
B|---------------------------------------------------|
G|---------------------------7-----------------------|
D|----------------5---7---/9---9-8-7---5~------------|
A|--0-3-2---------3---5--------------7---------------|
D|--0------3-5---------------------------------------|


after this. . Part A once. . then Part B will be like. .
e|-----------------------------------------------------------|
B|-----------------------------------------------------------|
G|-----------------------------------------------------------|
D|----------------5-5-4----------5~--7~----------------------|
A|-------------5--------7-5------3~--5~---------2-3-4-5*-----|
D|---00----7-5---5----------------------0-2-3-5--------------|


e|--------------------|
B|--------------------|
G|--------------------|
D|-2----2----2--------|
A|-2----2----2--------|
D|---3----3----3------| increase in tempo. .

then. .
rhythm of solo:
e|----------------------------------------|
B|----------------------------------------|
G|----------------------------------------|
D|--2------------2------------------2-----|
A|--2------------2---3--2-3-5--2-5--2-----|
D|-----3--2-3-2---------------------------|

cant figure out the solo, too fast.

this was credited to 'muzamil osman' the on who posted the vid on the tutorial. my 
intention was to ease the learning of this song. hope you guys comment on what i missed and 
the mistakes on this. thank you.
Добавлено: 04.10.2013
Другие материалы по этой песне:
  • Аккорды и текст

Страница создана 04.10.2013
http://primanota.ru/sweet-charity/penunggu-chords.htm
Привет, Гость.
Предлагаем пройти революционный курс по гитаре.
Подарок от PrimaNota.Ru, забирай!