PrimaNota.ru - самый крупный в мире бесплатный архив песенных текстов, аккордов, табулатур и нот


Sweet Charity - Musibah - таба, видео

Регистрация Запомнить меня
Войти через:  Facebook Google Twitter Vk Yandex Mail.ru

Sweet Charity - Musibah - таба, видео

Печатать
Просмотров: 104
-------------------------------------------------------------------------------
                             musibah – sweet charity
-------------------------------------------------------------------------------

Rhythm guitar

intro
e|---------------------------------------------------------------------------|
B|---------------------------------------------------------------------------|
G|--5-5-7~-------7--------5--------------4--5~~------------------------------|
D|--5-5-7~-4X----7--7--3—-5--5--8--7—-8—-5--7~~------------------------------|
A|--3-3-5~-------5--7--3--3--5--8--7—-8--3--7~~------------------------------|
E|------------------5--1-----3—-6--5--6--------------------------------------|

Verse 1
e|---------------------------------------------------------------------------|
B|---------------------------------------------------------------------------|
G|-------------------------------------------------5-------------------------|
D|--------------------3------------------------5h7---7-5/3\5-----------------|
A|--5-5-3-5-------3-5---5-5-3-5--------5-5-3-5---------------5-5-3-5---------|
E|----------1-3-5------------------------------------------------------------|

e|---------------------------------------------------------------------------|
B|---------------------------------------------------------------------------|
G|-------------------------------------------------5-------------------------|
D|--------------------3------------------------5h7---7-5/3\5-----------------|
A|--5-5-3-5-------3-5---5-5-3-5--------5-5-3-5-------------------------------|
E|----------1-3-5--------------------------------------------5---------------|

Verse 2
e|---------------------------------------------------------------------------|
B|---------------------------------------------------------------------------|
G|-----7----7----5----5----7----7--------------------------------------------|
D|-----------------------------------7----7----8----8----7----7-------3-35-35|
A|--5-5--5-5--3-3--3-3--5-5--5-5--------------------------------535-35-5-----|
E|--------------------------------5-5--5-5--6-6--6-6--5-5--5-5-----5---------|

e|---------------------------------------------------------------------------|
B|---------------------------------------------------------------------------|
G|-----7----7----5----5----7----7--------------------------------------------|
D|-----------------------------------7----7----8----8----7----7-------3-35-35|
A|--5-5--5-5--3-3--3-3--5-5--5-5--------------------------------535-35-5-----|
E|--------------------------------5-5--5-5--6-6--6-6--5-5--5-5-----5---------|

Verse 3
e|---------------------------------------------------------------------------|
B|---------------------------------------------------------------------------|
G|-------------------------7----7--------------------------------------------|
D|-----5----5----3----3--------------7----7--------5-7-10--------------------|
A|----------------------5-5--5-5-------------5-7-8-3-5--8--------------------|
E|--3-3--3-3--1-1--1-1------------5-5--5-5---3-5-6---------------------------|

#Repeat verse 1

#Repeat verse 2

e|---------------------------------------------------------------------------|
B|---------------------------------------------------------------------------|
G|-------------------------7----7--------------------------------------------|
D|-----5----5----3----3--------------7----7--------5-7-10-9~~----------------|
A|----------------------5-5--5-5-------------5-7-8-3-5--8-7~~----------------|
E|--3-3--3-3--1-1--1-1------------5-5--5-5---3-5-6---------------------------|

e|---------------------------------------------------------------------------|
B|---------------------------------------------------------------------------|
G|---------------------------------------------------------------------------|
D|------------5h7-5-----------------5~--<<<<<



	
	
Добавлено: 24.05.2012
Другие материалы по этой песне:
  • Аккорды и текст

Страница создана 24.05.2012
http://primanota.ru/sweet-charity/musibah-chords.htm
Привет, Гость.
Предлагаем пройти революционный курс по гитаре.
Подарок от PrimaNota.Ru, забирай!