PrimaNota.ru - самый крупный в мире бесплатный архив песенных текстов, аккордов, табулатур и нот


Swashbuckle - Grogbox - таба, видео

Регистрация Запомнить меня
Войти через:  Facebook Google Twitter Vk Yandex Mail.ru

Swashbuckle - Grogbox - таба, видео

Печатать
Просмотров: 60
This is my own personal interpretation of the song, i dont say its 100% correct, but you 
will find that it sounds accurate.

(intro) x2
e|------------------------------------|------------------------------------|
B|------------------------------------|------------------------------------|
G|------------------------------------|------------------------------------|
D|--7----------------------3----5---2-|--7----------------------3----7---7-|
A|--5--7--8-8---5------3---1----3---0-|--5--7--8-8---5------3---1----5---5-|
E|-----5--6-6---3------1--------------|-----5--6-6---3------1--------------|


(chorus-main riff)
e|------------------------------|-------------------------------------------|
B|------------------------------|-------------------------------------------|
G|------------------------------|-------------------------------------------|
D|---7---7---7------------------|----7---7---7-----8---8---7----------------|
A|---5---5---5----8--8---10-----|----5---5---5------------------------------|
E|----------------6--6---8------|-------------------------------------------|

                                                                              1.       2.
e|------------------------------|----------------------------------------|------|-------|
B|------------------------------|----------------------------------------|------|-------|
G|------------------------------|----------------------------------------|------|-------|
D|---7---7---7------------------|----------------------------------------|----7-|-------|
A|---5---5---5----8--8---10-----|-----12---12-----10---10----8---8-------|----5-|----7--|
E|----------------6--6---8------|-----10---10-----8----8-----6---6-------|------|----5--|


Verse (this entre section is palm muted, and im not sure if the second bar is correct)
e|------------------------------|-------------------------------------------|
B|------------------------------|-------------------------------------------|
G|------------------------------|-------------------------------------------|
D|------------------------------|-------------------------------------------|
A|---7-----7-----3--------------|---7-----7---3-2-3-5-3-5-------------------|
E|-5-5-5-5-5-5-1-1-1-33333333---|-5-5-5-5-5-5-1-0-1-3-1-3-------------------|

These are all riffs in this song.
End riff is exactly the same as intro riff, and this is it, its a short but sweet song.
This is my first tab, so please rate, i hope you'll enjoy it.
Rock on :)
Добавлено: 27.09.2013
Другие материалы по этой песне:
  • Аккорды и текст

Страница создана 27.09.2013
http://primanota.ru/swashbuckle/grogbox-chords.htm
Привет, Гость.
Предлагаем пройти революционный курс по гитаре.
Подарок от PrimaNota.Ru, забирай!