PrimaNota.ru - самый крупный в мире бесплатный архив песенных текстов, аккордов, табулатур и нот


Swan Lake - Are You Swimming In Her Pools - аккорды и текст, видео

Регистрация Запомнить меня
Войти через:  Facebook Google Twitter Vk Yandex Mail.ru

Swan Lake - Are You Swimming In Her Pools - аккорды и текст, видео

Печатать
Просмотров: 95
Авторы музыки: Spencer Krug

Are You Swimming In Her Pools
Swan Lake
This song was tabbed by "insterstellarburst" over on indieguitartabs.com .
All credit goes to the original tabber.
I just wanted to put it in a format that was easier for me to read!

Intro
e--------------------------------------------------
b--------------------------------------------------
g--2-2---2-2---2-2---2-2---2-2---2-2---2-2---2-2---
d--3--3--3--3--3--3--3--3--3--3--3--3--3--3--3--3--
a--------------------------------------------------
E--------------------------------------------------


e---------------------------------------------------
b---------------------------------------------------
g--2-2---2-2---2-2---2-2----------------------------
d--3--3--1--1--0--0--------5-5---5-5---5-5/--3-3----
a--------------------3--3--1--1--1--1--1--1--1--1---
E---------------------------------------------------
Will you be swimming in her pools?
Are you swimming in her pools?
Are you swimming in her pools?

Am       Dm
Oh ah ah oh
Am       Dm
Oh ah ah oh

e---------------------------------------------------
b---------------------------------------------------
g--2-2---2-2---2-2---2-2----------------------------
d--3--3--1--1--0--0--------5-5---5-5---5-5/--3-3----
a--------------------3--3--1--1--1--1--1--1--1--1---
E---------------------------------------------------
Will you be brushing off her snow?
Will you be brushing off her snow?
Will you be brushing off her snow?

Am                     Dm
How can you stand the cold?
Am                     Dm
How can you stand the cold?

                F                   C
And if you're still there when it snows
               Dm                Am
Will you still be there when it goes?
               G
Will you still be there when it's time

To fill the pools again?

         Am       G     F
And will you be coming back here?
Dm            G     F
Will you be coming back here?
Dm            G     F
Will you be coming back here?

Dm G Dm

e---------------------------------------------------
b---------------------------------------------------
g--2-2---2-2---2-2---2-2----------------------------
d--3--3--1--1--0--0--------5-5----------------------
a--------------------3--3--1--1---------------------
E---------------------------------------------------
Are you running up the river banks
And tracing them like long fingers...

e---------------------------------------------------
b---------------------------------------------------
g--2-2---2-2---2-2---2-2----------------------------
d--3--3--1--1--0--0--------5-5---5-5---5-5/--3-3----
a--------------------3--3--1--1--1--1--1--1--1--1---
E---------------------------------------------------
Are you running up her river banks
And navigating long fingers of a hand

Am                      Dm
'Cause fingers make the hand
Am                   Dm
And rivers make the land

e---------------------------------------------------
b---------------------------------------------------
g--2-2---2-2---2-2---2-2----------------------------
d--3--3--1--1--0--0--------5-5---5-5---5-5/--3-3----
a--------------------3--3--1--1--1--1--1--1--1--1---
E---------------------------------------------------
Is she cradling you well?
Oh is she cradling you well?
Because if I call you baby, she should cradle you well

Am                Dm
Does she fucking know?
Am                Dm
Does she fucking know?

              F          C                Dm       
And how the lines that appear around your eyes
               Am
When you are smiling
      G
Are revered for the way in which they always reappear

        Am       G     F
Oh will you be coming back here?
Dm            G     F
Will you be coming back here?
Dm            G     F         Dm
Will you be coming back here?

Am Dm Bb Bb 
Am Dm Dm Bb
Am Dm Bb Bb

Bm                     E
I hope you find your mother
Bm                     E
I hope you find your mother there
Bm                     E      F    C  Dm  Am   G
I hope you find your mother there-ere-ere-ere

G                    Bm               D        E5
You hit the ground running with a terrifying speed
               G         Bm           D      E5       
But it's the ground you cover that terrifies me
     G      Bm               D        E5
And brace yourself for the sound of bleeding

E5
'Cause bleeding hearts bleed

Bleeding hearts bleed

Bleeding hearts bleed

       C
And "please" is not a word that I ever say quietly...

A C#m G Bm F   Am Dm Bb   Bm   E

e---------------------------------------------------
b---------------------------------------------------
g--2-2---2-2---2-2---2-2----------------------------  x2
d--3--3--1--1--0--0--------5-5---5-5---5-5/--3-3----  x2
a--------------------3--3--1--1--1--1--1--1--1--1---
E---------------------------------------------------  
You said your love was fierce, fierce, fierce
You said your love was fierce, it's true

F
C              Dm       Am               G      Dm  
You said your love was fierce, fierce, fierce
C              Am       Bb            F
You said your love was fierce and I agree with you 

F    Am            C            Dm         Bb           Dm
His child of the future is the child I am seeing, too
C              Am       Bb            F
You said your love was fierce and I agree with you 
F      Am            C             Dm          Bb          Dm
These tigers of the heart are the tigers I am seeing, too
C              Am       Bb            F            FFFFFFF
You said your love was fierce and I agree with you 



*Just a note, his tab gives you the slide at the end of the fingerpicking section,
 but I play it like this just because it's easier:

e---------------------------------------------------
b---------------------------------------------------
g--2-2---2-2---2-2---2-2---0-0---0-0---0-0----------
d--3--3--1--1--0--0--------------------------3-3----
a--------------------3--3--1--1--1--1--1--1--1--1---
E---------------------------------------------------
Добавлено: 19.12.2015
Другие материалы по этой песне:
  • Аккорды и текст

Страница создана 19.12.2015
http://primanota.ru/swan-lake/are-you-swimming-in-her-pools-chords.htm
Привет, Гость.
Предлагаем пройти революционный курс по гитаре.
Подарок от PrimaNota.Ru, забирай!