PrimaNota.ru - самый крупный в мире бесплатный архив песенных текстов, аккордов, табулатур и нот


Swallow The Sun - Out Of This Gloomy Light - таба, видео

Регистрация Запомнить меня
Войти через:  Facebook Google Twitter Vk Yandex Mail.ru

Swallow The Sun - Out Of This Gloomy Light - таба, видео

Печатать
Просмотров: 105
Уроки эстрадного вокала в Санкт-Петербурге
Авторы музыки: Juha Raivio
Авторы текста: Juha Raivio
As recorded by Swallow The Sun
(From the 2003 Album THE MORNING NEVER CAME)

Transcribed by Danny Heater
Transferred to tab by Jerry Brown
Blackritual0@yahoo.com
        

Words and Music by Juha Ravio

Gtr I (C G C F A D) - 'Untitled'
Gtr II (C G C F A D) - 'Untitled'
Gtr III (C G C F A D) - 'Untitled'
Gtr IV (C G C F A D) - 'Untitled'

 Intro
  Q=127
  N.C.
 4/4
  Gtr I
  Q  Q  E Q  E   W          +W           +W
|--------------|----------|------------|--------|
|--------------|----------|------------|--------|
|----2----3----|-5--------|-(5)--------|-(5)----|
|-0-----0----0-|----------|------------|--------|
|--------------|----------|------------|--------|
|--------------|----------|------------|--------|


  N.C.
  Q  Q  E Q  E   W          +W            +W
|--------------|----------|------------|---------|
|--------------|----------|------------|---------|
|----2----3----|-5--------|-(5)--------|--(5)----|
|-0-----0----0-|----------|------------|---------|
|--------------|----------|------------|---------|
|--------------|----------|------------|---------|
|
| Gtr IV
|                            <
| W              W           W            +W
|--------------|----------|-20---------|-(20)----|
|--------------|----------|------------|---------|
|--------------|----------|-17---------|-(17)----|
|--------------|----------|------------|---------|
|--------------|----------|------------|---------|
|--------------|----------|------------|---------|


  G5
  Gtr III
   Q   Q   E Q   E    Q    E Q     E E E
|------------------|---------------------|
|------------------|---------------------|
|------2-----3-----|--5------5-------5---|
|--0-------0-----0-|-------0-------0---0-|
|------------------|---------------------|
|------------------|---------------------|
|
| Gtr II
|  E E E E E E E E    E  E E E  E  E E E
|------------------|---------------------|
|------------------|---------------------|
|------------------|---------------------|
|--5-5-5-5-5-5-5-5-|--5--5-5-5--5--5-5-5-|
|--5-5-5-5-5-5-5-5-|--5--5-5-5--5--5-5-5-|
|--5-5-5-5-5-5-5-5-|--5--5-5-5--5--5-5-5-|
|
| Gtr IV
|  W                  H         H
|-18---------------|-17--------15--------|
|--8---------------|-(8)-------(8)-------|
|--7---------------|-(7)-------(7)-------|
|--5---------------|-(5)-------(5)-------|
|------------------|---------------------|
|------------------|---------------------|
   W                 +H        +H


  F5
   Q   Q   E Q   E    Q    E Q     E E E
|------------------|---------------------|
|------------------|---------------------|
|------2-----3-----|--5------5-------5---|
|--0-------0-----0-|-------0-------0---0-|
|------------------|---------------------|
|------------------|---------------------|
|
|  E E E E E E E E    E  E E E  E  E E E
|------------------|---------------------|
|------------------|---------------------|
|------------------|---------------------|
|--3-3-3-3-3-3-3-3-|--3--3-3-3--3--3-3-3-|
|--3-3-3-3-3-3-3-3-|--3--3-3-3--3--3-3-3-|
|--3-3-3-3-3-3-3-3-|--3--3-3-3--3--3-3-3-|
|
|  W                  H         H
|-17---------------|-15--------17--------|
|--6---------------|-(6)-------(6)-------|
|--5---------------|-(5)-------(5)-------|
|--3---------------|-(3)-------(3)-------|
|------------------|---------------------|
|------------------|---------------------|
   W                 +H        +H


  D5                               N.C.
   Q    Q   E Q  E     Q   E Q     E E E
|------------------|---------------------|
|------------------|---------------------|
|-------2-----3----|---5-----5-------5---|
|--0--------0----0-|-------0-------0---0-|
|------------------|---------------------|
|------------------|---------------------|
|
|  E E +H.            +H       +E  E E E
|------------------|---------------------|
|------------------|---------------------|
|------------------|---------------------|
|--0-0-(0)---------|--(0)------(0)-3-3-3-|
|--0-0-(0)---------|--(0)------(0)-------|
|--0-0-(0)---------|--(0)------(0)-3-3-3-|
|
|  W                   W
|------------------|--17-----------------|
|-15---------------|-(15)----------------|
|--7---------------|--(7)----------------|
|--7---------------|--(7)----------------|
|--5---------------|--(5)----------------|
|------------------|---------------------|
   W                  +W


  D5                     N.C.
   Q    Q   E Q  E    Q      E  Q     E  E  E
|------------------|--------------------------|
|------------------|--------------------------|
|-------2-----3----|--5---------5--------5----|
|--0--------0----0-|---------0--------0-----0-|
|------------------|--------------------------|
|------------------|--------------------------|
|
|  E E +H.           +E   E  E  E  E  E  E  E
|------------------|--------------------------|
|------------------|--------------------------|
|------------------|-----10-10-10-10-10-10-10-|
|--0-0-(0)---------|-(0)----------------------|
|--0-0-(0)---------|-(0)--8--8--8--8--8--8--8-|
|--0-0-(0)---------|-(0)----------------------|
|
|  W                  W
|-22---------------|-20-----------------------|
|-15---------------|-13-----------------------|
|--7---------------|-10-----------------------|
|--7---------------|-10-----------------------|
|--5---------------|--8-----------------------|
|------------------|--------------------------|
   W                  W


  G5
   Q   Q   E Q   E    Q    E Q     E E E
|------------------|---------------------|
|------------------|---------------------|
|------2-----3-----|--5------5-------5---|
|--0-------0-----0-|-------0-------0---0-|
|------------------|---------------------|
|------------------|---------------------|
|
|  E E E E E E E E    E  E E E  E  E E E
|------------------|---------------------|
|------------------|---------------------|
|------------------|---------------------|
|--5-5-5-5-5-5-5-5-|--5--5-5-5--5--5-5-5-|
|--5-5-5-5-5-5-5-5-|--5--5-5-5--5--5-5-5-|
|--5-5-5-5-5-5-5-5-|--5--5-5-5--5--5-5-5-|
|
|  W                  H         H
|-18---------------|-17--------15--------|
|--8---------------|-(8)-------(8)-------|
|--7---------------|-(7)-------(7)-------|
|--5---------------|-(5)-------(5)-------|
|------------------|---------------------|
|------------------|---------------------|
   W                 +H        +H


  F5
   Q   Q   E Q   E    Q    E Q     E E E
|------------------|---------------------|
|------------------|---------------------|
|------2-----3-----|--5------5-------5---|
|--0-------0-----0-|-------0-------0---0-|
|------------------|---------------------|
|------------------|---------------------|
|
|  E E E E E E E E    E  E E E  E  E E E
|------------------|---------------------|
|------------------|---------------------|
|------------------|---------------------|
|--3-3-3-3-3-3-3-3-|--3--3-3-3--3--3-3-3-|
|--3-3-3-3-3-3-3-3-|--3--3-3-3--3--3-3-3-|
|--3-3-3-3-3-3-3-3-|--3--3-3-3--3--3-3-3-|
|
|  W                  H         H
|-17---------------|-15--------17--------|
|--6---------------|-(6)-------(6)-------|
|--5---------------|-(5)-------(5)-------|
|--3---------------|-(3)-------(3)-------|
|------------------|---------------------|
|------------------|---------------------|
   W                 +H        +H


  D5                               N.C.
   Q    Q   E Q  E     Q   E Q     E E E
|------------------|---------------------|
|------------------|---------------------|
|-------2-----3----|---5-----5-------5---|
|--0--------0----0-|-------0-------0---0-|
|------------------|---------------------|
|------------------|---------------------|
|
|  E E +H.            +H       +E  E E E
|------------------|---------------------|
|------------------|---------------------|
|------------------|---------------------|
|--0-0-(0)---------|--(0)------(0)-3-3-3-|
|--0-0-(0)---------|--(0)------(0)-------|
|--0-0-(0)---------|--(0)------(0)-3-3-3-|
|
|  W                  +W
|-13---------------|-(13)----------------|
|-15---------------|-(15)----------------|
|--7---------------|--(7)----------------|
|--7---------------|--(7)----------------|
|--5---------------|--(5)----------------|
|------------------|---------------------|
   W                  +W


  D5                        N.C.
    Q     Q   E Q  E     Q      E  Q     E  E  E
|--------------------|---------------------------|
|--------------------|---------------------------|
|---------2-----3----|---5---------5--------5----|
|---0---------0----0-|----------0--------0-----0-|
|--------------------|---------------------------|
|--------------------|---------------------------|
|
|   E  E +H.            +E   E  E  E  E  E  E  E
|--------------------|---------------------------|
|--------------------|---------------------------|
|--------------------|------10-10-10-10-10-10-10-|
|---0--0-(0)---------|--(0)----------------------|
|---0--0-(0)---------|--(0)--8--8--8--8--8--8--8-|
|---0--0-(0)---------|--(0)----------------------|
|
|  +W                   +W
|-(13)---------------|-(13)----------------------|
|-(15)---------------|-(15)----------------------|
|--(7)---------------|--(7)----------------------|
|--(7)---------------|--(7)----------------------|
|--(5)---------------|--(5)----------------------|
|--------------------|---------------------------|
   +W                   +W


  D5
  Gtr I
  Q  Q  E Q  E    W           +W           +W
|--------------|------------|------------|--------|
|--------------|------------|------------|--------|
|----2----3----|--5---------|-(5)--------|-(5)----|
|-0-----0----0-|------------|------------|--------|
|--------------|------------|------------|--------|
|--------------|------------|------------|--------|
|
| W              +W           +W           +W
|--------------|------------|------------|--------|
|--------------|------------|------------|--------|
|--------------|------------|------------|--------|
|--------------|------------|------------|--------|
|-0------------|-(0)--------|-(0)--------|-(0)----|
|-0------------|-(0)--------|-(0)--------|-(0)----|
|
| W              +W           +W           +W
|--------------|------------|------------|--------|
|--------------|------------|------------|--------|
|-7------------|-(7)--------|-(7)--------|-(7)----|
|--------------|------------|------------|--------|
|-5------------|-(5)--------|-(5)--------|-(5)----|
|--------------|------------|------------|--------|


  (D5)
   Q   Q  E Q  E    W           +W           +W
|----------------|------------|------------|---------------|
|----------------|------------|------------|---------------|
|------2----3----|--5---------|-(5)--------|-(5)-----------|
|--0------0----0-|------------|------------|---------------|
|----------------|------------|------------|---------------|
|----------------|------------|------------|---------------|
|
| +W               +W           +W           +W
|----------------|------------|------------|---------------|
|----------------|------------|------------|---------------|
|----------------|------------|------------|---------------|
|----------------|------------|------------|---------------|
|-(0)------------|-(0)--------|-(0)--------|-(0)-----------|
|-(0)------------|-(0)--------|-(0)--------|-(0)-----------|
|
| +W               +W            W            H      H
|----------------|------------|------------|---------------|
|----------------|------------|--5---------|--6------8-----|
|-(7)------------|-(7)--------|------------|---------------|
|----------------|------------|------------|---------------|
|-(5)------------|-(5)--------|-(5)--------|-(5)----(5)----|
|----------------|------------|------------|---------------|


   Verse
    G5
    Gtr III
     Q   Q   E Q   E    Q    E Q     E E E
||-------------------|---------------------|
||o------------------|---------------------|
||-------2-----3-----|--5------5-------5---|
||---0-------0-----0-|-------0-------0---0-|
||o------------------|---------------------|
||-------------------|---------------------|
|
|    E E E E E E E E    E  E E E  E  E E E
||-------------------|---------------------|
||o------------------|---------------------|
||-------------------|---------------------|
||---5-5-5-5-5-5-5-5-|--5--5-5-5--5--5-5-5-|
||o--5-5-5-5-5-5-5-5-|--5--5-5-5--5--5-5-5-|
||---5-5-5-5-5-5-5-5-|--5--5-5-5--5--5-5-5-|
|
|    W                  H         H
||--18---------------|-17--------15--------|
||o--8---------------|-(8)-------(8)-------|
||---7---------------|-(7)-------(7)-------|
||---5---------------|-(5)-------(5)-------|
||o------------------|---------------------|
||-------------------|---------------------|
     W                 +H        +H


  F5
   Q   Q   E Q   E    Q    E Q     E E E
|------------------|----------------------|
|------------------|----------------------|
|------2-----3-----|--5------5-------5----|
|--0-------0-----0-|-------0-------0---0--|
|------------------|----------------------|
|------------------|----------------------|
|
|  E E E E E E E E    E  E E E  E  E E E
|------------------|----------------------|
|------------------|----------------------|
|------------------|----------------------|
|--3-3-3-3-3-3-3-3-|--3--3-3-3--3--3-3-3--|
|--3-3-3-3-3-3-3-3-|--3--3-3-3--3--3-3-3--|
|--3-3-3-3-3-3-3-3-|--3--3-3-3--3--3-3-3--|
|
|  W                  H         H
|-17---------------|-15--------17---------|
|--6---------------|-(6)-------(6)--------|
|--5---------------|-(5)-------(5)--------|
|--3---------------|-(3)-------(3)--------|
|------------------|----------------------|
|------------------|----------------------|
   W                 +H        +H


  D5                               N.C.
   Q    Q   E Q  E     Q   E Q     E E E
|------------------|---------------------|
|------------------|---------------------|
|-------2-----3----|---5-----5-------5---|
|--0--------0----0-|-------0-------0---0-|
|------------------|---------------------|
|------------------|---------------------|
|
|  E E +H.            +H       +E  E E E
|------------------|---------------------|
|------------------|---------------------|
|------------------|---------------------|
|--0-0-(0)---------|--(0)------(0)-3-3-3-|
|--0-0-(0)---------|--(0)------(0)-------|
|--0-0-(0)---------|--(0)------(0)-3-3-3-|
|
|  W                   W
|------------------|--17-----------------|
|-15---------------|-(15)----------------|
|--7---------------|--(7)----------------|
|--7---------------|--(7)----------------|
|--5---------------|--(5)----------------|
|------------------|---------------------|
   W                  +W


  D5                     N.C.
   Q    Q   E Q  E    Q      E  Q     E  E  E
|------------------|--------------------------|
|------------------|--------------------------|
|-------2-----3----|--5---------5--------5----|
|--0--------0----0-|---------0--------0-----0-|
|------------------|--------------------------|
|------------------|--------------------------|
|
|  E E +H.           +E   E  E  E  E  E  E  E
|------------------|--------------------------|
|------------------|--------------------------|
|------------------|-----10-10-10-10-10-10-10-|
|--0-0-(0)---------|-(0)----------------------|
|--0-0-(0)---------|-(0)--8--8--8--8--8--8--8-|
|--0-0-(0)---------|-(0)----------------------|
|
|  W                  W
|-22---------------|-20-----------------------|
|-15---------------|-13-----------------------|
|--7---------------|-10-----------------------|
|--7---------------|-10-----------------------|
|--5---------------|--8-----------------------|
|------------------|--------------------------|
   W                  W


  G5
   Q   Q   E Q   E    Q    E Q     E E E
|------------------|---------------------|
|------------------|---------------------|
|------2-----3-----|--5------5-------5---|
|--0-------0-----0-|-------0-------0---0-|
|------------------|---------------------|
|------------------|---------------------|
|
|  E E E E E E E E    E  E E E  E  E E E
|------------------|---------------------|
|------------------|---------------------|
|------------------|---------------------|
|--5-5-5-5-5-5-5-5-|--5--5-5-5--5--5-5-5-|
|--5-5-5-5-5-5-5-5-|--5--5-5-5--5--5-5-5-|
|--5-5-5-5-5-5-5-5-|--5--5-5-5--5--5-5-5-|
|
|  W                  H         H
|-18---------------|-17--------15--------|
|--8---------------|-(8)-------(8)-------|
|--7---------------|-(7)-------(7)-------|
|--5---------------|-(5)-------(5)-------|
|------------------|---------------------|
|------------------|---------------------|
   W                 +H        +H


  F5
   Q   Q   E Q   E    Q    E Q     E E E
|------------------|---------------------|
|------------------|---------------------|
|------2-----3-----|--5------5-------5---|
|--0-------0-----0-|-------0-------0---0-|
|------------------|---------------------|
|------------------|---------------------|
|
|  E E E E E E E E    E  E E E  E  E E E
|------------------|---------------------|
|------------------|---------------------|
|------------------|---------------------|
|--3-3-3-3-3-3-3-3-|--3--3-3-3--3--3-3-3-|
|--3-3-3-3-3-3-3-3-|--3--3-3-3--3--3-3-3-|
|--3-3-3-3-3-3-3-3-|--3--3-3-3--3--3-3-3-|
|
|  W                  H         H
|-17---------------|-15--------17--------|
|--6---------------|-(6)-------(6)-------|
|--5---------------|-(5)-------(5)-------|
|--3---------------|-(3)-------(3)-------|
|------------------|---------------------|
|------------------|---------------------|
   W                 +H        +H


  1.
  D5
  Gtr I
  Q  Q  E Q  E    W           +W           +W
|--------------|------------|------------|--------|
|--------------|------------|------------|--------|
|----2----3----|--5---------|-(5)--------|-(5)----|
|-0-----0----0-|------------|------------|--------|
|--------------|------------|------------|--------|
|--------------|------------|------------|--------|
|
| W              +W           +W           +W
|--------------|------------|------------|--------|
|--------------|------------|------------|--------|
|--------------|------------|------------|--------|
|--------------|------------|------------|--------|
|-0------------|-(0)--------|-(0)--------|-(0)----|
|-0------------|-(0)--------|-(0)--------|-(0)----|
|
| W              +W           +W           +W
|--------------|------------|------------|--------|
|--------------|------------|------------|--------|
|-7------------|-(7)--------|-(7)--------|-(7)----|
|--------------|------------|------------|--------|
|-5------------|-(5)--------|-(5)--------|-(5)----|
|--------------|------------|------------|--------|


  (D5)
   Q   Q  E Q  E    W           +W           +W
|----------------|------------|------------|----------------||
|----------------|------------|------------|---------------o||
|------2----3----|--5---------|-(5)--------|-(5)------------||
|--0------0----0-|------------|------------|----------------||
|----------------|------------|------------|---------------o||
|----------------|------------|------------|----------------||
|
| +W               +W           +W           +W
|----------------|------------|------------|----------------||
|----------------|------------|------------|---------------o||
|----------------|------------|------------|----------------||
|----------------|------------|------------|----------------||
|-(0)------------|-(0)--------|-(0)--------|-(0)-----------o||
|-(0)------------|-(0)--------|-(0)--------|-(0)------------||
|
| +W               +W            W            H      H
|----------------|------------|------------|----------------||
|----------------|------------|--5---------|--6------8-----o||
|-(7)------------|-(7)--------|------------|----------------||
|----------------|------------|------------|----------------||
|-(5)------------|-(5)--------|-(5)--------|-(5)----(5)----o||
|----------------|------------|------------|----------------||


  2.
  D5                               N.C.
  Gtr III
   Q    Q   E Q  E     Q   E Q     E E E
|------------------|---------------------|
|------------------|---------------------|
|-------2-----3----|---5-----5-------5---|
|--0--------0----0-|-------0-------0---0-|
|------------------|---------------------|
|------------------|---------------------|
|
|  E E +H.            +H       +E  E E E
|------------------|---------------------|
|------------------|---------------------|
|------------------|---------------------|
|--0-0-(0)---------|--(0)------(0)-3-3-3-|
|--0-0-(0)---------|--(0)------(0)-------|
|--0-0-(0)---------|--(0)------(0)-3-3-3-|
|
|  W                  +W
|-13---------------|-(13)----------------|
|-15---------------|-(15)----------------|
|--7---------------|--(7)----------------|
|--7---------------|--(7)----------------|
|--5---------------|--(5)----------------|
|------------------|---------------------|
   W                  +W


  D5                        N.C.
    Q     Q   E Q  E     Q      E  Q     E  E  E
|--------------------|---------------------------||
|--------------------|---------------------------||
|---------2-----3----|---5---------5--------5----||
|---0---------0----0-|----------0--------0-----0-||
|--------------------|---------------------------||
|--------------------|---------------------------||
|
|   E  E +H.            +E   E  E  E  E  E  E  E
|--------------------|---------------------------||
|--------------------|---------------------------||
|--------------------|------10-10-10-10-10-10-10-||
|---0--0-(0)---------|--(0)----------------------||
|---0--0-(0)---------|--(0)--8--8--8--8--8--8--8-||
|---0--0-(0)---------|--(0)----------------------||
|
|  +W                   +W
|-(13)---------------|-(13)----------------------||
|-(15)---------------|-(15)----------------------||
|--(7)---------------|--(7)----------------------||
|--(7)---------------|--(7)----------------------||
|--(5)---------------|--(5)----------------------||
|--------------------|---------------------------||
   +W                   +W


   horus
    D5
                               |-3--|
     Q.   Q.   Q     +E   Q.   S  S S +E   Q
||----------------|---------------------------|
||o-10------------|---------------------------|
||--10----7----9--|--(9)-10----9-10-9-(9)-----|
||--------7----8--|--(8)-10----7--8-7-(7)-10--|
||o---------------|------------------------8--|
||----------------|---------------------------|
|
|    Q.   Q.   Q     +E   Q.   Q           Q
||----------------|---------------------------|
||o---------------|---------------------------|
||----------------|---------------------------|
||---0----0----0--|--(0)--0----0-----------0--|
||o--0----0----0--|--(0)--0----0-----------0--|
||---0----0----0--|--(0)--0----0-----------0--|
|
|    W               +W
||--13------------|-(13)----------------------|
||o-15------------|-(15)----------------------|
||--14------------|-(14)----------------------|
||--12------------|-(12)----------------------|
||o-12------------|-(12)----------------------|
||----------------|---------------------------|


  F5
   Q.    Q.    Q     +E   Q    E  Q   E E   3x
|-----------------|-------------------------||
|-13--------------|------11---11-10--10\---o||
|-12-----9----10--|-(10)--9-------9---9s7---||
|-------10--------|-------------------------||
|-----------------|------------------------o||
|-----------------|-------------------------||
|
|  Q.    Q.    Q     +E   Q.      Q   Q     3x
|-----------------|-------------------------||
|-----------------|------------------------o||
|-----------------|-------------------------||
|--3-----3-----3--|--(3)--3-------3---3-----||
|--3-----3-----3--|--(3)--3-------3---3----o||
|--3-----3-----3--|--(3)--3-------3---3-----||
|
|  W                 +W                     3x
|--8--------------|--(8)--------------------||
|--8--------------|--(8)-------------------o||
|--9--------------|--(9)--------------------||
|-10--------------|-(10)--------------------||
|--8--------------|--(8)-------------------o||
|-----------------|-------------------------||


  D5
                             |-3--|
   Q.   Q.   Q     +E   Q.   S  S S +E   Q
|---------------|---------------------------|
|-10------------|---------------------------|
|-10----7----9--|--(9)-10----9-10-9-(9)-----|
|-------7----8--|--(8)-10----7--8-7-(7)-10--|
|---------------|------------------------8--|
|---------------|---------------------------|
|
|  Q.   Q.   Q     +E   Q.   Q           Q
|---------------|---------------------------|
|---------------|---------------------------|
|---------------|---------------------------|
|--0----0----0--|--(0)--0----0-----------0--|
|--0----0----0--|--(0)--0----0-----------0--|
|--0----0----0--|--(0)--0----0-----------0--|
|
|  W               +W
|-13------------|-(13)----------------------|
|-15------------|-(15)----------------------|
|-14------------|-(14)----------------------|
|-12------------|-(12)----------------------|
|-12------------|-(12)----------------------|
|---------------|---------------------------|


  F5
   Q.    Q.    Q     +E   Q    E  Q   Q
|-----------------|-------------------------|
|-13--------------|------11---11-10--10\----|
|-12-----9----10--|-(10)--9-------9---9\----|
|-------10--------|-------------------------|
|-----------------|-------------------------|
|-----------------|-------------------------|
|
|  Q.    Q.    Q     +E   Q.      Q   Q
|-----------------|-------------------------|
|-----------------|-------------------------|
|-----------------|-------------------------|
|--3-----3-----3--|--(3)--3-------3---3-----|
|--3-----3-----3--|--(3)--3-------3---3-----|
|--3-----3-----3--|--(3)--3-------3---3-----|
|
|  W                 +W
|--8--------------|--(8)--------------------|
|--8--------------|--(8)--------------------|
|--9--------------|--(9)--------------------|
|-10--------------|-(10)--------------------|
|--8--------------|--(8)--------------------|
|-----------------|-------------------------|


 Bridge
  D5                  Eb5
   E Q.   H        E   Q.    H
|--------------|------------------|
|--------------|------------------|
|--7-7----7----|---7---8-----8----|
|--7-7----7----|---7---8-----8----|
|--5-5----5----|---5---6-----6----|
|--------------|------------------|
|
|  E Q.   H        E   Q.    H
|--------------|------------------|
|--------------|------------------|
|--------------|------------------|
|--0-0----0----|---0---1-----1----|
|--0-0----0----|---0---1-----1----|
|--0-0----0----|---0---1-----1----|
|
|  W              +E   H..
|-10-----------|-(10)-11----------|
|-10-----------|-(10)-11----------|
|--7-----------|--(7)--8----------|
|--------------|------------------|
|--------------|------------------|
|--------------|------------------|


       Bb5                              A5Bb5
                                ~~~
    E   Q.    H        E  Q.    H       E Q.   H
|------------------|------------------|-------------|
|------------------|------------------|-------------|
|---8---3-----3----|---3--3-----------|-------------|
|---8---3-----3----|---3--3----[3]----|-7-8----8----|
|---6---1-----1----|---1--1-----------|-7-8----8----|
|------------------|------------------|-7-8----8----|
|
|                               ~~~
|   E   Q.    H        E  Q.    H       E Q.   H
|------------------|------------------|-------------|
|------------------|------------------|-------------|
|-------3-----3----|---3--3----[2]----|-------------|
|---1---3-----3----|---3--3-----------|-3-5----5----|
|---1---1-----1----|---1--1-----------|-3-5----5----|
|---1--------------|------------------|-3-5----5----|
|
|  +E   H..           +W                W
|-(11)-------------|------------------|-------------|
|-(11)-11----------|-(11)-------------|-8-----------|
|--(8)-10----------|-(10)-------------|-7-----------|
|-------8----------|--(8)-------------|-5-----------|
|------------------|------------------|-5-----------|
|------------------|------------------|-------------|


  Bb5                   D5                         Eb5  F5EbD5
                            PM-------------------|
   E Q.     H            Q  E E q  E E     q   E E   E  E E E
|---------------------|----------------|----------------------|
|---------------------|----------------|----------------------|
|---------------------|----------------|----------------------|
|--8-8------8---------|--0-------------|-------------1--3-1-0-|
|--8-8------8---------|--0--0-0-0--0-0-|---0---0-0---1--3-1-0-|
|--8-8------8---------|--0--0-0-0--0-0-|---0---0-0---1--3-1-0-|
|
|                           PM-------------------|
|  E Q.     H            Q  E E q  E E     q   E E   E  E E E
|---------------------|----------------|----------------------|
|---------------------|----------------|----------------------|
|---------------------|----------------|----------------------|
|--5-8------8---------|--0-------------|-------------1--3-1-0-|
|--5-8------8---------|--0--0-0-0--0-0-|---0---0-0---1--3-1-0-|
|--5-8------8---------|--0--0-0-0--0-0-|---0---0-0---1--3-1-0-|
|
|  H        Q     Q      W                 H         H
|----------13----12---|-13-------------|--12--------13--------|
|-11------(11)--(11)--|-10-------------|-(10)------(10)-------|
|-10------(10)--(10)--|--7-------------|--(7)-------(7)-------|
|--8-------(8)---(8)--|--7-------------|--(7)-------(7)-------|
|--8-------(8)---(8)--|--5-------------|--(5)-------(5)-------|
|---------------------|----------------|----------------------|
                         W                +H        +H


  Eb5  D5                          EbF5EbD5
         PM|       PM------------|
    E  E E E   Q   E E     q   E E E E E E
|----------------------|-------------------||
|----------------------|-------------------||
|----------------------|-------------------||
|---1--0-------0-------|-----------1-3-1-0-||
|---1--0-0-0---0---0-0-|---0---0-0-1-3-1-0-||
|---1--0-0-0---0---0-0-|---0---0-0-1-3-1-0-||
|
|        PM|       PM------------|
|   E  E E E   Q   E E     q   E E E E E E
|----------------------|-------------------||
|----------------------|-------------------||
|----------------------|-------------------||
|---1--0-------0-------|-----------1-3-1-0-||
|---1--0-0-0---0---0-0-|---0---0-0-1-3-1-0-||
|---1--0-0-0---0---0-0-|---0---0-0-1-3-1-0-||
|
|   H          H          +W
|--16---------17-------|-(17)--------------||
|-(10)-------(10)------|-(10)--------------||
|--10--------(10)------|-(10)--------------||
|--(7)--------(7)------|--(7)--------------||
|--(5)--------(5)------|--(5)--------------||
|----------------------|-------------------||
    H         +H          +W


 Verse
  D5
  Gtr I
  Q  Q  E Q  E    W           +W           +W
|--------------|------------|------------|--------|
|--------------|------------|------------|--------|
|----2----3----|--5---------|-(5)--------|-(5)----|
|-0-----0----0-|------------|------------|--------|
|--------------|------------|------------|--------|
|--------------|------------|------------|--------|
|
| W              +W           +W           +W
|--------------|------------|------------|--------|
|--------------|------------|------------|--------|
|--------------|------------|------------|--------|
|--------------|------------|------------|--------|
|-0------------|-(0)--------|-(0)--------|-(0)----|
|-0------------|-(0)--------|-(0)--------|-(0)----|
|
| W              +W           +W           +W
|--------------|------------|------------|--------|
|--------------|------------|------------|--------|
|-7------------|-(7)--------|-(7)--------|-(7)----|
|--------------|------------|------------|--------|
|-5------------|-(5)--------|-(5)--------|-(5)----|
|--------------|------------|------------|--------|


  (D5)
   Q   Q  E Q  E    W           +W           +W
|----------------|------------|------------|---------------|
|----------------|------------|------------|---------------|
|------2----3----|--5---------|-(5)--------|-(5)-----------|
|--0------0----0-|------------|------------|---------------|
|----------------|------------|------------|---------------|
|----------------|------------|------------|---------------|
|
| +W               +W           +W           +W
|----------------|------------|------------|---------------|
|----------------|------------|------------|---------------|
|----------------|------------|------------|---------------|
|----------------|------------|------------|---------------|
|-(0)------------|-(0)--------|-(0)--------|-(0)-----------|
|-(0)------------|-(0)--------|-(0)--------|-(0)-----------|
|
| +W               +W            W            H      H
|----------------|------------|------------|---------------|
|----------------|------------|--5---------|--6------8-----|
|-(7)------------|-(7)--------|------------|---------------|
|----------------|------------|------------|---------------|
|-(5)------------|-(5)--------|-(5)--------|-(5)----(5)----|
|----------------|------------|------------|---------------|


  G5
  Gtr III
   Q   Q   E Q   E    Q    E Q     E E E
|------------------|---------------------|
|------------------|---------------------|
|------2-----3-----|--5------5-------5---|
|--0-------0-----0-|-------0-------0---0-|
|------------------|---------------------|
|------------------|---------------------|
|
|  E E E E E E E E    E  E E E  E  E E E
|------------------|---------------------|
|------------------|---------------------|
|------------------|---------------------|
|--5-5-5-5-5-5-5-5-|--5--5-5-5--5--5-5-5-|
|--5-5-5-5-5-5-5-5-|--5--5-5-5--5--5-5-5-|
|--5-5-5-5-5-5-5-5-|--5--5-5-5--5--5-5-5-|
|
|  W                  H         H
|-18---------------|-17--------15--------|
|--8---------------|-(8)-------(8)-------|
|--7---------------|-(7)-------(7)-------|
|--5---------------|-(5)-------(5)-------|
|------------------|---------------------|
|------------------|---------------------|
   W                 +H        +H


  F5
   Q   Q   E Q   E    Q    E Q     E E E
|------------------|---------------------|
|------------------|---------------------|
|------2-----3-----|--5------5-------5---|
|--0-------0-----0-|-------0-------0---0-|
|------------------|---------------------|
|------------------|---------------------|
|
|  E E E E E E E E    E  E E E  E  E E E
|------------------|---------------------|
|------------------|---------------------|
|------------------|---------------------|
|--3-3-3-3-3-3-3-3-|--3--3-3-3--3--3-3-3-|
|--3-3-3-3-3-3-3-3-|--3--3-3-3--3--3-3-3-|
|--3-3-3-3-3-3-3-3-|--3--3-3-3--3--3-3-3-|
|
|  W                  H         H
|-17---------------|-15--------17--------|
|--6---------------|-(6)-------(6)-------|
|--5---------------|-(5)-------(5)-------|
|--3---------------|-(3)-------(3)-------|
|------------------|---------------------|
|------------------|---------------------|
   W                 +H        +H


  D5                               N.C.
   Q    Q   E Q  E     Q   E Q     E E E
|------------------|---------------------|
|------------------|---------------------|
|-------2-----3----|---5-----5-------5---|
|--0--------0----0-|-------0-------0---0-|
|------------------|---------------------|
|------------------|---------------------|
|
|  E E +H.            +H       +E  E E E
|------------------|---------------------|
|------------------|---------------------|
|------------------|---------------------|
|--0-0-(0)---------|--(0)------(0)-3-3-3-|
|--0-0-(0)---------|--(0)------(0)-------|
|--0-0-(0)---------|--(0)------(0)-3-3-3-|
|
|  W                   W
|------------------|--17-----------------|
|-15---------------|-(15)----------------|
|--7---------------|--(7)----------------|
|--7---------------|--(7)----------------|
|--5---------------|--(5)----------------|
|------------------|---------------------|
   W                  +W


  D5                     N.C.
   Q    Q   E Q  E    Q      E  Q     E  E  E
|------------------|--------------------------|
|------------------|--------------------------|
|-------2-----3----|--5---------5--------5----|
|--0--------0----0-|---------0--------0-----0-|
|------------------|--------------------------|
|------------------|--------------------------|
|
|  E E +H.           +E   E  E  E  E  E  E  E
|------------------|--------------------------|
|------------------|--------------------------|
|------------------|-----10-10-10-10-10-10-10-|
|--0-0-(0)---------|-(0)----------------------|
|--0-0-(0)---------|-(0)--8--8--8--8--8--8--8-|
|--0-0-(0)---------|-(0)----------------------|
|
|  W                  W
|-22---------------|-20-----------------------|
|-15---------------|-13-----------------------|
|--7---------------|-10-----------------------|
|--7---------------|-10-----------------------|
|--5---------------|--8-----------------------|
|------------------|--------------------------|
   W                  W


  G5
   Q   Q   E Q   E    Q    E Q     E E E
|------------------|---------------------|
|------------------|---------------------|
|------2-----3-----|--5------5-------5---|
|--0-------0-----0-|-------0-------0---0-|
|------------------|---------------------|
|------------------|---------------------|
|
|  E E E E E E E E    E  E E E  E  E E E
|------------------|---------------------|
|------------------|---------------------|
|------------------|---------------------|
|--5-5-5-5-5-5-5-5-|--5--5-5-5--5--5-5-5-|
|--5-5-5-5-5-5-5-5-|--5--5-5-5--5--5-5-5-|
|--5-5-5-5-5-5-5-5-|--5--5-5-5--5--5-5-5-|
|
|  W                  H         H
|-18---------------|-17--------15--------|
|--8---------------|-(8)-------(8)-------|
|--7---------------|-(7)-------(7)-------|
|--5---------------|-(5)-------(5)-------|
|------------------|---------------------|
|------------------|---------------------|
   W                 +H        +H


  F5
   Q   Q   E Q   E    Q    E Q     E E E
|------------------|---------------------|
|------------------|---------------------|
|------2-----3-----|--5------5-------5---|
|--0-------0-----0-|-------0-------0---0-|
|------------------|---------------------|
|------------------|---------------------|
|
|  E E E E E E E E    E  E E E  E  E E E
|------------------|---------------------|
|------------------|---------------------|
|------------------|---------------------|
|--3-3-3-3-3-3-3-3-|--3--3-3-3--3--3-3-3-|
|--3-3-3-3-3-3-3-3-|--3--3-3-3--3--3-3-3-|
|--3-3-3-3-3-3-3-3-|--3--3-3-3--3--3-3-3-|
|
|  W                  H         H
|-17---------------|-15--------17--------|
|--6---------------|-(6)-------(6)-------|
|--5---------------|-(5)-------(5)-------|
|--3---------------|-(3)-------(3)-------|
|------------------|---------------------|
|------------------|---------------------|
   W                 +H        +H


  D5                               N.C.
   Q    Q   E Q  E     Q   E Q     E E E
|------------------|---------------------|
|------------------|---------------------|
|-------2-----3----|---5-----5-------5---|
|--0--------0----0-|-------0-------0---0-|
|------------------|---------------------|
|------------------|---------------------|
|
|  E E +H.            +H       +E  E E E
|------------------|---------------------|
|------------------|---------------------|
|------------------|---------------------|
|--0-0-(0)---------|--(0)------(0)-3-3-3-|
|--0-0-(0)---------|--(0)------(0)-------|
|--0-0-(0)---------|--(0)------(0)-3-3-3-|
|
|  W                  +W
|-22---------------|-(22)----------------|
|-22---------------|-(22)----------------|
|-19---------------|-(19)----------------|
|--7---------------|--(7)----------------|
|--5---------------|--(5)----------------|
|------------------|---------------------|
   W                  +W


  D5                        N.C.
    Q     Q   E Q  E     Q      E  Q     E  E  E
|--------------------|---------------------------||
|--------------------|---------------------------||
|---------2-----3----|---5---------5--------5----||
|---0---------0----0-|----------0--------0-----0-||
|--------------------|---------------------------||
|--------------------|---------------------------||
|
|   E  E +H.            +E   E  E  E  E  E  E  E
|--------------------|---------------------------||
|--------------------|---------------------------||
|--------------------|------10-10-10-10-10-10-10-||
|---0--0-(0)---------|--(0)----------------------||
|---0--0-(0)---------|--(0)--8--8--8--8--8--8--8-||
|---0--0-(0)---------|--(0)----------------------||
|
|  +W                   +W
|-(22)---------------|-(22)----------------------||
|-(22)---------------|-(22)----------------------||
|-(19)---------------|-(19)----------------------||
|--(7)---------------|--(7)----------------------||
|--(5)---------------|--(5)----------------------||
|--------------------|---------------------------||
   +W                   +W


   Chorus
    D5
                               |-3--|
     Q.   Q.   Q     +E   Q.   S  S S +E   Q
||----------------|---------------------------|
||o-10------------|---------------------------|
||--10----7----9--|--(9)-10----9-10-9-(9)-----|
||--------7----8--|--(8)-10----7--8-7-(7)-10--|
||o---------------|------------------------8--|
||----------------|---------------------------|
|
|    Q.   Q.   Q     +E   Q.   Q           Q
||----------------|---------------------------|
||o---------------|---------------------------|
||----------------|---------------------------|
||---0----0----0--|--(0)--0----0-----------0--|
||o--0----0----0--|--(0)--0----0-----------0--|
||---0----0----0--|--(0)--0----0-----------0--|
|
|    W               +W
||--13------------|-(13)----------------------|
||o-15------------|-(15)----------------------|
||--14------------|-(14)----------------------|
||--12------------|-(12)----------------------|
||o-12------------|-(12)----------------------|
||----------------|---------------------------|


  F5
   Q.    Q.    Q     +E   Q    E  Q   E E   3x
|-----------------|-------------------------||
|-13--------------|------11---11-10--10\---o||
|-12-----9----10--|-(10)--9-------9---9s7---||
|-------10--------|-------------------------||
|-----------------|------------------------o||
|-----------------|-------------------------||
|
|  Q.    Q.    Q     +E   Q.      Q   Q     3x
|-----------------|-------------------------||
|-----------------|------------------------o||
|-----------------|-------------------------||
|--3-----3-----3--|--(3)--3-------3---3-----||
|--3-----3-----3--|--(3)--3-------3---3----o||
|--3-----3-----3--|--(3)--3-------3---3-----||
|
|  W                 +W                     3x
|--8--------------|--(8)--------------------||
|--8--------------|--(8)-------------------o||
|--9--------------|--(9)--------------------||
|-10--------------|-(10)--------------------||
|--8--------------|--(8)-------------------o||
|-----------------|-------------------------||


  D5
                             |-3--|
   Q.   Q.   Q     +E   Q.   S  S S +E   Q
|---------------|---------------------------|
|-10------------|---------------------------|
|-10----7----9--|--(9)-10----9-10-9-(9)-----|
|-------7----8--|--(8)-10----7--8-7-(7)-10--|
|---------------|------------------------8--|
|---------------|---------------------------|
|
|  Q.   Q.   Q     +E   Q.   Q           Q
|---------------|---------------------------|
|---------------|---------------------------|
|---------------|---------------------------|
|--0----0----0--|--(0)--0----0-----------0--|
|--0----0----0--|--(0)--0----0-----------0--|
|--0----0----0--|--(0)--0----0-----------0--|
|
|  W               +W
|-13------------|-(13)----------------------|
|-15------------|-(15)----------------------|
|-14------------|-(14)----------------------|
|-12------------|-(12)----------------------|
|-12------------|-(12)----------------------|
|---------------|---------------------------|


  F5
   Q.    Q.    Q     +E   Q    E  Q   Q
|-----------------|-------------------------|
|-13--------------|------11---11-10--10\----|
|-12-----9----10--|-(10)--9-------9---9\----|
|-------10--------|-------------------------|
|-----------------|-------------------------|
|-----------------|-------------------------|
|
|  Q.    Q.    Q     +E   Q.      Q   Q
|-----------------|-------------------------|
|-----------------|-------------------------|
|-----------------|-------------------------|
|--3-----3-----3--|--(3)--3-------3---3-----|
|--3-----3-----3--|--(3)--3-------3---3-----|
|--3-----3-----3--|--(3)--3-------3---3-----|
|
|  W                 +W
|--8--------------|--(8)--------------------|
|--8--------------|--(8)--------------------|
|--9--------------|--(9)--------------------|
|-10--------------|-(10)--------------------|
|--8--------------|--(8)--------------------|
|-----------------|-------------------------|


 Bridge
  D5                  Eb5
   E Q.   H        E   Q.    H
|--------------|------------------|
|--------------|------------------|
|--7-7----7----|---7---8-----8----|
|--7-7----7----|---7---8-----8----|
|--5-5----5----|---5---6-----6----|
|--------------|------------------|
|
|  E Q.   H        E   Q.    H
|--------------|------------------|
|--------------|------------------|
|--------------|------------------|
|--0-0----0----|---0---1-----1----|
|--0-0----0----|---0---1-----1----|
|--0-0----0----|---0---1-----1----|
|
|  W              +E   H..
|-10-----------|-(10)-11----------|
|-10-----------|-(10)-11----------|
|--7-----------|--(7)--8----------|
|--------------|------------------|
|--------------|------------------|
|--------------|------------------|


       Bb5                              A5Bb5
                                ~~~
    E   Q.    H        E  Q.    H       E Q.   H
|------------------|------------------|-------------|
|------------------|------------------|-------------|
|---8---3-----3----|---3--3-----------|-------------|
|---8---3-----3----|---3--3----[3]----|-7-8----8----|
|---6---1-----1----|---1--1-----------|-7-8----8----|
|------------------|------------------|-7-8----8----|
|
|                               ~~~
|   E   Q.    H        E  Q.    H       E Q.   H
|------------------|------------------|-------------|
|------------------|------------------|-------------|
|-------3-----3----|---3--3----[2]----|-------------|
|---1---3-----3----|---3--3-----------|-3-5----5----|
|---1---1-----1----|---1--1-----------|-3-5----5----|
|---1--------------|------------------|-3-5----5----|
|
|  +E   H..           +W                W
|-(11)-------------|------------------|-------------|
|-(11)-11----------|-(11)-------------|-8-----------|
|--(8)-10----------|-(10)-------------|-7-----------|
|-------8----------|--(8)-------------|-5-----------|
|------------------|------------------|-5-----------|
|------------------|------------------|-------------|


  Bb5                   D5                         Eb5  F5Eb5  D5
                            PM-------------------|
   E Q.     H            Q  E E q  E E     q   E E   E  E   E  E
|---------------------|----------------|-------------------------|
|---------------------|----------------|-------------------------|
|---------------------|----------------|-------------------------|
|--8-8------8---------|--0-------------|-------------1--3---1--0-|
|--8-8------8---------|--0--0-0-0--0-0-|---0---0-0---1--3---1--0-|
|--8-8------8---------|--0--0-0-0--0-0-|---0---0-0---1--3---1--0-|
|
|                           PM-------------------|
|  E Q.     H            Q  E E q  E E     q   E E   E  E   E  E
|---------------------|----------------|-------------------------|
|---------------------|----------------|-------------------------|
|---------------------|----------------|-------------------------|
|--5-8------8---------|--0-------------|-------------1--3---1--0-|
|--5-8------8---------|--0--0-0-0--0-0-|---0---0-0---1--3---1--0-|
|--5-8------8---------|--0--0-0-0--0-0-|---0---0-0---1--3---1--0-|
|
|  H        Q     Q      W                 H         Q      Q
|----------13----12---|-13-------------|--12--------13-----15----|
|-11------(11)--(11)--|-10-------------|-(10)------(10)---(10)---|
|-10------(10)--(10)--|--7-------------|--(7)-------(7)----(7)---|
|--8-------(8)---(8)--|--7-------------|--(7)-------(7)----(7)---|
|--8-------(8)---(8)--|--5-------------|--(5)-------(5)----(5)---|
|---------------------|----------------|-------------------------|
                         W                +H        +Q     +Q


  Eb5  D5                          EbF5EbD5
         PM|       PM------------|
    E  E E E   Q   E E     q   E E E E E E
|----------------------|-------------------||
|----------------------|-------------------||
|----------------------|-------------------||
|---1--0-------0-------|-----------1-3-1-0-||
|---1--0-0-0---0---0-0-|---0---0-0-1-3-1-0-||
|---1--0-0-0---0---0-0-|---0---0-0-1-3-1-0-||
|
|        PM|       PM------------|
|   E  E E E   Q   E E     q   E E E E E E
|----------------------|-------------------||
|----------------------|-------------------||
|----------------------|-------------------||
|---1--0-------0-------|-----------1-3-1-0-||
|---1--0-0-0---0---0-0-|---0---0-0-1-3-1-0-||
|---1--0-0-0---0---0-0-|---0---0-0-1-3-1-0-||
|
|   H          H          +W
|--16---------17-------|-(17)--------------||
|-(10)-------(10)------|-(10)--------------||
|--10--------(10)------|-(10)--------------||
|--(7)--------(7)------|--(7)--------------||
|--(5)--------(5)------|--(5)--------------||
|----------------------|-------------------||
    H         +H          +W


   Bridge
    A5
                               |-3--|
     Q.   Q.   Q     +E   Q.   S  S S +E   Q
||----------------|---------------------------|
||o-10------------|---------------------------|
||--------7----9--|--(9)-10----9-10-9-(9)-----|
||----------------|-----------------------10--|
||o---------------|---------------------------|
||----------------|---------------------------|
|
|    W               +W
||----------------|---------------------------|
||o---------------|---------------------------|
||----------------|---------------------------|
||---7------------|--(7)----------------------|
||o--7------------|--(7)----------------------|
||---7------------|--(7)----------------------|
|
|    W               +W
||--12------------|-(12)----------------------|
||o-13------------|-(13)----------------------|
||--14------------|-(14)----------------------|
||--14------------|-(14)----------------------|
||o---------------|---------------------------|
||----------------|---------------------------|


  G5
   Q.   Q.    Q     +E   Q.   Q  E E
|----------------|--------------------|
|-13-------------|------11------------|
|-------9----10--|-(10)-------9--9s7--|
|----------------|--------------------|
|----------------|--------------------|
|----------------|--------------------|
|
|  W                +W
|----------------|--------------------|
|----------------|--------------------|
|----------------|--------------------|
|--5-------------|--(5)---------------|
|--5-------------|--(5)---------------|
|--5-------------|--(5)---------------|
|
|  W                +W
|--6-------------|--(6)---------------|
|--8-------------|--(8)---------------|
|--5-------------|--(5)---------------|
|--5-------------|--(5)---------------|
|----------------|--------------------|
|----------------|--------------------|


  D5
                             |-3--|
   Q.   Q.   Q     +E   Q.   S  S S +E   Q
|---------------|---------------------------|
|-10------------|---------------------------|
|-------7----9--|--(9)-10----9-10-9-(9)-----|
|---------------|-----------------------10--|
|---------------|---------------------------|
|---------------|---------------------------|
|
|  W               +W
|---------------|---------------------------|
|---------------|---------------------------|
|---------------|---------------------------|
|--0------------|--(0)----------------------|
|--0------------|--(0)----------------------|
|--0------------|--(0)----------------------|
|
|  W               +W
|-13------------|-(13)----------------------|
|-15------------|-(15)----------------------|
|-14------------|-(14)----------------------|
|-12------------|-(12)----------------------|
|-12------------|-(12)----------------------|
|---------------|---------------------------|


  F5
   Q.   Q.    Q     +E   Q.   Q  E E
|----------------|----------------------||
|-13-------------|------11-------------o||
|-------9----10--|-(10)-------9--9s7----||
|----------------|----------------------||
|----------------|---------------------o||
|----------------|----------------------||
|
|  W                +W
|----------------|----------------------||
|----------------|---------------------o||
|----------------|----------------------||
|--3-------------|--(3)-----------------||
|--3-------------|--(3)----------------o||
|--3-------------|--(3)-----------------||
|
|  W                +W
|--8-------------|--(8)-----------------||
|--8-------------|--(8)----------------o||
|--9-------------|--(9)-----------------||
|-10-------------|-(10)-----------------||
|--8-------------|--(8)----------------o||
|----------------|----------------------||


 Solo
  A5
                                         |--3--|  |--3--|  |--3--|  |--3--|  |--3--|
   E.. E  E.. E  E.. S.      +T   E.. E  S  S  S  S  S  S  S  S  S  S  S  S  S  S  S
|-------------------------|-------------------------------------------------12-13-15-|
|-11-----10-----11--------|------10-----------------------------12-13-15-12----------|
|------7------7------7----|--(7)------7-------------------12-14----------------------|
|-------------------------|-------------------12-14-15-12----------------------------|
|-------------------------|-------------12-15----------------------------------------|
|-------------------------|----------------------------------------------------------|
|
|  W                         +W
|-------------------------|----------------------------------------------------------|
|-------------------------|----------------------------------------------------------|
|-------------------------|----------------------------------------------------------|
|--7----------------------|--(7)-----------------------------------------------------|
|--7----------------------|--(7)-----------------------------------------------------|
|--7----------------------|--(7)-----------------------------------------------------|
|
|  W                         +W
|-12----------------------|-(12)-----------------------------------------------------|
|-13----------------------|-(13)-----------------------------------------------------|
|-14----------------------|-(14)-----------------------------------------------------|
|-14----------------------|-(14)-----------------------------------------------------|
|-------------------------|----------------------------------------------------------|
|-------------------------|----------------------------------------------------------|


  G5
   W               +Q..    +S    Q.      +T   S.
|-17b18=========|=(17)----(17)r-17b18r==(17)-15---|
|---------------|---------------------------------|
|---------------|---------------------------------|
|---------------|---------------------------------|
|---------------|---------------------------------|
|---------------|---------------------------------|
|
|  W               +W
|---------------|---------------------------------|
|---------------|---------------------------------|
|---------------|---------------------------------|
|--5------------|--(5)----------------------------|
|--5------------|--(5)----------------------------|
|--5------------|--(5)----------------------------|
|
|  W               +W
|--6------------|--(6)----------------------------|
|--8------------|--(8)----------------------------|
|--5------------|--(5)----------------------------|
|--5------------|--(5)----------------------------|
|---------------|---------------------------------|
|---------------|---------------------------------|


  D5
   ~~~~~~~~~~~~~~~~
                      |--3--|  |--3--|  |--3--|  |--3--|  |--3--|
   W           +Q.    S  S  S  S  S  S  S  S  S  S  S  S  S  S  S
|-----------|-----------------15-17-18-17-15----------------------|
|-15--------|-(15)---15-17-18----------------18-------------------|
|-----------|-----------------------------------17-15-14-15-14-12-|
|-----------|-----------------------------------------------------|
|-----------|-----------------------------------------------------|
|-----------|-----------------------------------------------------|
|
|  W           +W
|-----------|-----------------------------------------------------|
|-----------|-----------------------------------------------------|
|-----------|-----------------------------------------------------|
|--0--------|--(0)------------------------------------------------|
|--0--------|--(0)------------------------------------------------|
|--0--------|--(0)------------------------------------------------|
|
|  W           +W
|-13--------|-(13)------------------------------------------------|
|-15--------|-(15)------------------------------------------------|
|-14--------|-(14)------------------------------------------------|
|-12--------|-(12)------------------------------------------------|
|-12--------|-(12)------------------------------------------------|
|-----------|-----------------------------------------------------|


  F5
                                                ~~~~~~~~~~
   |-----5-----|  |-----5-----|  |-----5-----|                     |--4:3---|  |--3--|  |--3--|
   S  S  S  S  S  S  S  S  S  S  S  S  S  S  S  Q     +H      +S   S  S  S  S  S  S  S  S  S  S
|--------------------------------------------------|-----------------------------------------------|
|--------------------------------------------------|-----------------------------------------------|
|-15-14-12-------15-14-12--------------------------|-----------------------------12-14-15-14-12----|
|----------15-12----------15-14-12-----------------|-----------------------12-15-------------------|
|----------------------------------15-13-12-10-12--|-(12)----(12)-12-14-15-------------------------|
|--------------------------------------------------|-----------------------------------------------|
|
|  W                                                  +W
|--------------------------------------------------|-----------------------------------------------|
|--------------------------------------------------|-----------------------------------------------|
|--------------------------------------------------|-----------------------------------------------|
|--3-----------------------------------------------|--(3)------------------------------------------|
|--3-----------------------------------------------|--(3)------------------------------------------|
|--3-----------------------------------------------|--(3)------------------------------------------|
|
|  W                                                  +W
|--8-----------------------------------------------|--(8)------------------------------------------|
|--8-----------------------------------------------|--(8)------------------------------------------|
|--9-----------------------------------------------|--(9)------------------------------------------|
|-10-----------------------------------------------|-(10)------------------------------------------|
|--8-----------------------------------------------|--(8)------------------------------------------|
|--------------------------------------------------|-----------------------------------------------|


  A5
   ~~~~~~~~~~~~~~~~
   W           +E   Q       +S       T  T  e.  e.  e
|-----------|-----------------------------17--18--20-|
|-----------|--------------------------18------------|
|-14--------|-(14)-14tr15--(14tr15)-19---------------|
|-----------|----------------------------------------|
|-----------|----------------------------------------|
|-----------|----------------------------------------|
|
|  W           +W
|-----------|----------------------------------------|
|-----------|----------------------------------------|
|-----------|----------------------------------------|
|--7--------|--(7)-----------------------------------|
|--7--------|--(7)-----------------------------------|
|--7--------|--(7)-----------------------------------|
|
|  W           +W
|-12--------|-(12)-----------------------------------|
|-13--------|-(13)-----------------------------------|
|-14--------|-(14)-----------------------------------|
|-14--------|-(14)-----------------------------------|
|-----------|----------------------------------------|
|-----------|----------------------------------------|


  G5
   +W                +Q.    +E     E.  E.  E
|-(20)b22=========|=(20)---(20)r-/22--20--18--|
|-----------------|---------------------------|
|-----------------|---------------------------|
|-----------------|---------------------------|
|-----------------|---------------------------|
|-----------------|---------------------------|
|
|   W                +W
|-----------------|---------------------------|
|-----------------|---------------------------|
|-----------------|---------------------------|
|---5-------------|--(5)----------------------|
|---5-------------|--(5)----------------------|
|---5-------------|--(5)----------------------|
|
|   W                +W
|---6-------------|--(6)----------------------|
|---8-------------|--(8)----------------------|
|---5-------------|--(5)----------------------|
|---5-------------|--(5)----------------------|
|-----------------|---------------------------|
|-----------------|---------------------------|


  D5
                                                                                ~~
       |--3--|                           |--4:3---|  |--3--|  |--3--|  |--3--|
   E.  S  S  S  E  E.  E.    +E.    +E.  S  S  S  S  S  S  S  S  S  S  S  S  S  Q
|-17--17-18-17-15-17--17b18r(17)-|-(17)-15-----------------------------------------|
|--------------------------------|---------18-17-15--------------------------------|
|--------------------------------|------------------17-15-17-15-14-------------14--|
|--------------------------------|---------------------------------17-15-14-15-----|
|--------------------------------|-------------------------------------------------|
|--------------------------------|-------------------------------------------------|
|
|  W                                +W
|--------------------------------|-------------------------------------------------|
|--------------------------------|-------------------------------------------------|
|--------------------------------|-------------------------------------------------|
|--0-----------------------------|--(0)--------------------------------------------|
|--0-----------------------------|--(0)--------------------------------------------|
|--0-----------------------------|--(0)--------------------------------------------|
|
|  W                                +W
|-13-----------------------------|-(13)--------------------------------------------|
|-15-----------------------------|-(15)--------------------------------------------|
|-14-----------------------------|-(14)--------------------------------------------|
|-12-----------------------------|-(12)--------------------------------------------|
|-12-----------------------------|-(12)--------------------------------------------|
|--------------------------------|-------------------------------------------------|


  H.=H
  F5
   Q.   Q.    Q   
Добавлено: 20.05.2012
Другие материалы по этой песне:

Страница создана 20.05.2012
http://primanota.ru/swallow-the-sun/out-of-this-gloomy-light-chords.htm
Привет, Гость.
Предлагаем пройти революционный курс по гитаре.
Подарок от PrimaNota.Ru, забирай!