PrimaNota.ru - самый крупный в мире бесплатный архив песенных текстов, аккордов, табулатур и нот


Svika Pick - Mary Lou - таба, видео

Регистрация Запомнить меня
Войти через:  Facebook Google Twitter Vk Yandex Mail.ru

Svika Pick - Mary Lou - таба, видео

Печатать
Просмотров: 46
Svika Pick  -  Mary Lou

Vocal Melody for guitar 


e|------------------------------------|
B|--0-1--0-1--0-1---0-1--0-1---3-1-0--|
G|------------------------------------|
D|------------------------------------|  X2
A|------------------------------------|
E|------------------------------------|

e|----------------------|--------------------------|
B|--3-3--3-3--3--1-1-0--|--(0)-3-3--3-3--3--1-1-0--|
G|----------------------|--------------------------|
D|----------------------|--------------------------|
A|----------------------|--------------------------|
E|----------------------|--------------------------|

e|-----------------0-----------------|
B|--3-3--3-3--3--1---0----1-3-1------|
G|------------------------------2-2--|
D|-----------------------------------|
A|-----------------------------------|
E|-----------------------------------|




Chorus X 2

e|--0----0---0-----1-0------|------------------0--------|
B|----3----3-----3-----3-1--|--3-1---3-1-3---1---3-1-0--|
G|--------------------------|---------------------------|
D|--------------------------|---------------------------|
A|--------------------------|---------------------------|
E|--------------------------|---------------------------|

e|-----------------------------------|     Ending "mary lou"
B|--1-0---1-0-1---0-1---0-1---3-1-0--|     |--1-0-1--|
G|-----------------------------------| 
D|-----------------------------------|
A|-----------------------------------|
E|-----------------------------------|
Добавлено: 24.11.2015
Вам также может быть интересно:
Другие материалы по этой песне:
  • Аккорды и текст

Страница создана 24.11.2015
http://primanota.ru/svika-pick/mary-lou-chords.htm
Привет, Гость.
Предлагаем пройти революционный курс по гитаре.
Подарок от PrimaNota.Ru, забирай!