PrimaNota.ru - самый крупный в мире бесплатный архив песенных текстов, аккордов, табулатур и нот


Svika Pick - Mala Mala - таба, видео

Регистрация Запомнить меня
Войти через:  Facebook Google Twitter Vk Yandex Mail.ru

Svika Pick - Mala Mala - таба, видео

Печатать
Просмотров: 75
Уроки эстрадного вокала в Санкт-Петербурге
Svika Pick   -   Mala Mala


Vocal Melody for Guitar


this is actually pretty nice to play on the guitar...


e|------7---------7-11-------------9---------------------------|
B|----9-----9---9------12----9---9-----------7-9-10-10-10-9-9--|
G|--9---------9----------------9-------9-8-9-------------------|
D|-------------------------------------------------------------|
A|-------------------------------------------------------------|
E|-------------------------------------------------------------|


e|------------11--------------9-----------------------------|
B|--9---9--12----12-----9---9-------------7-9-10-10-10-9-9--|
G|----9-------------------9---------9-8-9-------------------|
D|----------------------------------------------------------|
A|----------------------------------------------------------|
E|----------------------------------------------------------|


e|--0-5-5-7-8-5---5-4-5-7----0-2-2-4-5-2---4-4-5-7--|
B|--------------------------------------------------|
G|--------------------------------------------------|
D|--------------------------------------------------|
A|--------------------------------------------------|
E|--------------------------------------------------|


e|--0-5-5-7-8-5----12-12-12-10-12----12-14-14-12-14-----|
B|--------------------------------------------------14--|
G|------------------------------------------------------|
D|------------------------------------------------------|
A|------------------------------------------------------|
E|------------------------------------------------------|

e|--12--11--9h11p9--7--|     e|--12--11--9--7--|
B|---------------------|        
G|---------------------|                easier way
D|---------------------|
A|---------------------|
E|---------------------|


e|--8--8-10--8--7-5---|--3-3--5-7-7--5-3--5-3-3--|
B|--------------------|--------------------------|
G|--------------------|--------------------------|
D|--------------------|--------------------------|
A|--------------------|--------------------------|
E|--------------------|--------------------------|


e|--------------7----|--0--0-3--5-7--|
B|--8-8---10-8----7--|---------------|
G|-------------------|---------------|
D|-------------------|---------------|
A|-------------------|---------------|
E|-------------------|---------------|


e|--8--8-10--8--7-5---|--3-3--5-7-7--5-3--5-3-3--|
B|-------------------|---------------------------|
G|-------------------|---------------------------|
D|-------------------|---------------------------|
A|-------------------|---------------------------|
E|-------------------|---------------------------|



e|--3-5-5-5--|--5-3-7------|-------------0--|
B|-----------|--------7-7--|--8-8-7----7----|
G|-----------|-------------|---------7------|
D|-----------|-------------|----------------|
A|-----------|-------------|----<  X2   >---|
E|-----------|-------------|----------------|




B|--------------7----|-------------------2-0--|
B|--8-8---10-8----7--|--8-8--8-8--7-5--3------|
G|-------------------|------------------------|
D|-------------------|------------------------|
A|-------------------|------------------------|
E|-------------------|------------------------|
Добавлено: 24.11.2015
Вам также может быть интересно:
Другие материалы по этой песне:
  • Аккорды и текст

Страница создана 24.11.2015
http://primanota.ru/svika-pick/mala-mala-chords.htm
Привет, Гость.
Предлагаем пройти революционный курс по гитаре.
Подарок от PrimaNota.Ru, забирай!